999
dxflib 3.17.0.0
  0
SECTION
  2
HEADER
  9
$ACADVER
  1
AC1015
  9
$HANDSEED
  5
FFFF
  9
$DIMADEC
 70
0
  9
$DIMASZ
 40
2.5
  9
$DIMAUNIT
 70
0
  9
$DIMAZIN
 70
2
  9
$DIMDEC
 70
4
  9
$DIMDLI
 40
5.0
  9
$DIMDSEP
 70
46
  9
$DIMEXE
 40
1.25
  9
$DIMEXO
 40
0.625
  9
$DIMGAP
 40
0.625
  9
$DIMLUNIT
 70
2
  9
$DIMSCALE
 40
1.0
  9
$DIMTSZ
 40
0.0
  9
$DIMTXT
 40
2.5
  9
$DIMZIN
 70
8
  9
$DWGCODEPAGE
  3
ANSI_1252
  9
$INSUNITS
 70
4
  9
$LTSCALE
 40
1.0
  9
$MAXACTVP
 70
64
  9
$MEASUREMENT
 70
1
  9
$MIRRTEXT
 70
0
  9
$PDMODE
 70
0
  9
$PDSIZE
 40
0.0
  0
ENDSEC
  0
SECTION
  2
TABLES
  0
TABLE
  2
VPORT
  5
8
100
AcDbSymbolTable
 70
1
  0
VPORT
  5
30
100
AcDbSymbolTableRecord
100
AcDbViewportTableRecord
  2
*Active
 70
0
 10
0.0
 20
0.0
 11
1.0
 21
1.0
 12
286.3055555555554861
 22
148.5
 13
0.0
 23
0.0
 14
10.0
 24
10.0
 15
10.0
 25
10.0
 16
0.0
 26
0.0
 36
1.0
 17
0.0
 27
0.0
 37
0.0
 40
297.0
 41
1.92798353909465
 42
50.0
 43
0.0
 44
0.0
 50
0.0
 51
0.0
 71
0
 72
100
 73
1
 74
3
 75
1
 76
1
 77
0
 78
0
281
0
 65
1
110
0.0
120
0.0
130
0.0
111
1.0
121
0.0
131
0.0
112
0.0
122
1.0
132
0.0
 79
0
146
0.0
  0
ENDTAB
  0
TABLE
  2
LTYPE
  5
5
100
AcDbSymbolTable
 70
41
  0
LTYPE
  5
16
100
AcDbSymbolTableRecord
100
AcDbLinetypeTableRecord
  2
Continuous
 70
0
  3
Solid line
 72
65
 73
0
 40
0.0
  0
LTYPE
  5
31
100
AcDbSymbolTableRecord
100
AcDbLinetypeTableRecord
  2
HIDDEN
 70
0
  3
Hidden __ __ __ __ __ __ __ __ __ __ __ __ __ __
 72
65
 73
2
 40
9.5249999999999986
 49
6.3499999999999996
 74
0
 49
-3.1749999999999998
 74
0
  0
LTYPE
  5
32
100
AcDbSymbolTableRecord
100
AcDbLinetypeTableRecord
  2
DIVIDEX2
 70
0
  3
Divide (2x) ________  .  .  ________  .  .  _
 72
65
 73
6
 40
63.5
 49
25.3999999999999986
 74
0
 49
-12.6499999999999986
 74
0
 49
0.1
 74
0
 49
-12.5999999999999979
 74
0
 49
0.1
 74
0
 49
-12.6499999999999986
 74
0
  0
LTYPE
  5
33
100
AcDbSymbolTableRecord
100
AcDbLinetypeTableRecord
  2
CENTER2
 70
0
  3
Center (.5x) ___ _ ___ _ ___ _ ___ _ ___ _ ___
 72
65
 73
4
 40
28.5750000000000028
 49
19.0500000000000007
 74
0
 49
-3.1749999999999998
 74
0
 49
3.1749999999999998
 74
0
 49
-3.1749999999999998
 74
0
  0
LTYPE
  5
34
100
AcDbSymbolTableRecord
100
AcDbLinetypeTableRecord
  2
ACAD_ISO03W100
 70
0
  3
ISO dash space __    __    __    __    __    __
 72
65
 73
2
 40
30.0
 49
12.0
 74
0
 49
-18.0
 74
0
  0
LTYPE
  5
35
100
AcDbSymbolTableRecord
100
AcDbLinetypeTableRecord
  2
DIVIDE2
 70
0
  3
Divide (.5x) __..__..__..__..__..__..__..__.._
 72
65
 73
6
 40
15.8749999999999982
 49
6.3499999999999996
 74
0
 49
-3.125
 74
0
 49
0.1
 74
0
 49
-3.0750000000000002
 74
0
 49
0.1
 74
0
 49
-3.125
 74
0
  0
LTYPE
  5
36
100
AcDbSymbolTableRecord
100
AcDbLinetypeTableRecord
  2
DASHED2
 70
0
  3
Dashed (.5x) _ _ _ _ _ _ _ _ _ _ _ _ _ _ _ _ _ 
 72
65
 73
2
 40
9.5249999999999986
 49
6.3499999999999996
 74
0
 49
-3.1749999999999998
 74
0
  0
LTYPE
  5
37
100
AcDbSymbolTableRecord
100
AcDbLinetypeTableRecord
  2
ACAD_ISO05W100
 70
0
  3
ISO long-dash double-dot ____ .. ____ .. ____ . 
 72
65
 73
6
 40
33.0000000000000071
 49
24.0
 74
0
 49
-2.9500000000000002
 74
0
 49
0.1
 74
0
 49
-2.9000000000000004
 74
0
 49
0.1
 74
0
 49
-2.9500000000000002
 74
0
  0
LTYPE
  5
38
100
AcDbSymbolTableRecord
100
AcDbLinetypeTableRecord
  2
PHANTOM2
 70
0
  3
Phantom (.5x) ___ _ _ ___ _ _ ___ _ _ ___ _ _
 72
65
 73
6
 40
31.7500000000000036
 49
15.875
 74
0
 49
-3.1749999999999998
 74
0
 49
3.1749999999999998
 74
0
 49
-3.1749999999999998
 74
0
 49
3.1749999999999998
 74
0
 49
-3.1749999999999998
 74
0
  0
LTYPE
  5
39
100
AcDbSymbolTableRecord
100
AcDbLinetypeTableRecord
  2
HIDDEN2
 70
0
  3
Hidden (.5x) _ _ _ _ _ _ _ _ _ _ _ _ _ _ _ _ _ 
 72
65
 73
2
 40
4.7624999999999993
 49
3.1749999999999998
 74
0
 49
-1.5874999999999999
 74
0
  0
LTYPE
  5
3A
100
AcDbSymbolTableRecord
100
AcDbLinetypeTableRecord
  2
ACAD_ISO11W100
 70
0
  3
ISO double-dash dot __ __ . __ __ . __ __ . __ _
 72
65
 73
6
 40
33.0
 49
12.0
 74
0
 49
-3.0
 74
0
 49
12.0
 74
0
 49
-2.9500000000000002
 74
0
 49
0.1
 74
0
 49
-2.9500000000000002
 74
0
  0
LTYPE
  5
15
100
AcDbSymbolTableRecord
100
AcDbLinetypeTableRecord
  2
BYLAYER
 70
0
  3

 72
65
 73
0
 40
0.0
  0
LTYPE
  5
3B
100
AcDbSymbolTableRecord
100
AcDbLinetypeTableRecord
  2
BORDERX2
 70
0
  3
Border (2x) ____  ____  .  ____  ____  .  ___
 72
65
 73
6
 40
88.8999999999999773
 49
25.3999999999999986
 74
0
 49
-12.6999999999999993
 74
0
 49
25.3999999999999986
 74
0
 49
-12.6499999999999986
 74
0
 49
0.1
 74
0
 49
-12.6499999999999986
 74
0
  0
LTYPE
  5
3C
100
AcDbSymbolTableRecord
100
AcDbLinetypeTableRecord
  2
HIDDENX2
 70
0
  3
Hidden (2x) ____ ____ ____ ____ ____ ____ ____ 
 72
65
 73
2
 40
19.0499999999999972
 49
12.6999999999999993
 74
0
 49
-6.3499999999999996
 74
0
  0
LTYPE
  5
3D
100
AcDbSymbolTableRecord
100
AcDbLinetypeTableRecord
  2
DASHDOT2
 70
0
  3
Dash dot (.5x) _._._._._._._._._._._._._._._.
 72
65
 73
4
 40
12.6999999999999993
 49
6.3499999999999996
 74
0
 49
-3.125
 74
0
 49
0.1
 74
0
 49
-3.125
 74
0
  0
LTYPE
  5
3E
100
AcDbSymbolTableRecord
100
AcDbLinetypeTableRecord
  2
DOT2
 70
0
  3
Dot (.5x) ........................................
 72
65
 73
2
 40
3.1749999999999998
 49
0.1
 74
0
 49
-3.0749999999999997
 74
0
  0
LTYPE
  5
14
100
AcDbSymbolTableRecord
100
AcDbLinetypeTableRecord
  2
BYBLOCK
 70
0
  3

 72
65
 73
0
 40
0.0
  0
LTYPE
  5
3F
100
AcDbSymbolTableRecord
100
AcDbLinetypeTableRecord
  2
ACAD_ISO02W100
 70
0
  3
ISO dash __ __ __ __ __ __ __ __ __ __ __ __ __
 72
65
 73
2
 40
15.0
 49
12.0
 74
0
 49
-3.0
 74
0
  0
LTYPE
  5
40
100
AcDbSymbolTableRecord
100
AcDbLinetypeTableRecord
  2
PHANTOMX2
 70
0
  3
Phantom (2x) ____________    ____    ____   _
 72
65
 73
6
 40
127.0000000000000142
 49
63.5
 74
0
 49
-12.6999999999999993
 74
0
 49
12.6999999999999993
 74
0
 49
-12.6999999999999993
 74
0
 49
12.6999999999999993
 74
0
 49
-12.6999999999999993
 74
0
  0
LTYPE
  5
41
100
AcDbSymbolTableRecord
100
AcDbLinetypeTableRecord
  2
DASHDOT
 70
0
  3
Dash dot __ . __ . __ . __ . __ . __ . __ . __
 72
65
 73
4
 40
25.4000000000000021
 49
12.6999999999999993
 74
0
 49
-6.2999999999999998
 74
0
 49
0.1
 74
0
 49
-6.2999999999999998
 74
0
  0
LTYPE
  5
42
100
AcDbSymbolTableRecord
100
AcDbLinetypeTableRecord
  2
ACAD_ISO06W100
 70
0
  3
ISO long-dash triple-dot ____ ... ____ ... ____
 72
65
 73
8
 40
36.0000000000000071
 49
24.0
 74
0
 49
-2.9500000000000002
 74
0
 49
0.1
 74
0
 49
-2.9000000000000004
 74
0
 49
0.1
 74
0
 49
-2.9000000000000004
 74
0
 49
0.1
 74
0
 49
-2.9500000000000002
 74
0
  0
LTYPE
  5
43
100
AcDbSymbolTableRecord
100
AcDbLinetypeTableRecord
  2
ACAD_ISO15W100
 70
0
  3
ISO double-dash triple-dot __ __ . . . __ __ . .
 72
65
 73
10
 40
39.0000000000000071
 49
12.0
 74
0
 49
-3.0
 74
0
 49
12.0
 74
0
 49
-2.9500000000000002
 74
0
 49
0.1
 74
0
 49
-2.9000000000000004
 74
0
 49
0.1
 74
0
 49
-2.9000000000000004
 74
0
 49
0.1
 74
0
 49
-2.9500000000000002
 74
0
  0
LTYPE
  5
44
100
AcDbSymbolTableRecord
100
AcDbLinetypeTableRecord
  2
ACAD_ISO14W100
 70
0
  3
ISO dash triple-dot __ . . . __ . . . __ . . . _
 72
65
 73
8
 40
24.0000000000000036
 49
12.0
 74
0
 49
-2.9500000000000002
 74
0
 49
0.1
 74
0
 49
-2.9000000000000004
 74
0
 49
0.1
 74
0
 49
-2.9000000000000004
 74
0
 49
0.1
 74
0
 49
-2.9500000000000002
 74
0
  0
LTYPE
  5
45
100
AcDbSymbolTableRecord
100
AcDbLinetypeTableRecord
  2
BORDER2
 70
0
  3
Border (.5x) __.__.__.__.__.__.__.__.__.__.__.
 72
65
 73
6
 40
22.2250000000000014
 49
6.3499999999999996
 74
0
 49
-3.1749999999999998
 74
0
 49
6.3499999999999996
 74
0
 49
-3.125
 74
0
 49
0.1
 74
0
 49
-3.125
 74
0
  0
LTYPE
  5
46
100
AcDbSymbolTableRecord
100
AcDbLinetypeTableRecord
  2
DOT
 70
0
  3
Dot . . . . . . . . . . . . . . . . . . . . . . . .
 72
65
 73
2
 40
6.3499999999999996
 49
0.1
 74
0
 49
-6.25
 74
0
  0
LTYPE
  5
47
100
AcDbSymbolTableRecord
100
AcDbLinetypeTableRecord
  2
CENTERX2
 70
0
  3
Center (2x) ________  __  ________  __  _____
 72
65
 73
4
 40
101.6000000000000085
 49
63.5
 74
0
 49
-12.6999999999999993
 74
0
 49
12.6999999999999993
 74
0
 49
-12.6999999999999993
 74
0
  0
LTYPE
  5
48
100
AcDbSymbolTableRecord
100
AcDbLinetypeTableRecord
  2
ACAD_ISO12W100
 70
0
  3
ISO dash double-dot __ . . __ . . __ . . __ . . 
 72
65
 73
6
 40
21.0
 49
12.0
 74
0
 49
-2.9500000000000002
 74
0
 49
0.1
 74
0
 49
-2.9000000000000004
 74
0
 49
0.1
 74
0
 49
-2.9500000000000002
 74
0
  0
LTYPE
  5
49
100
AcDbSymbolTableRecord
100
AcDbLinetypeTableRecord
  2
DIVIDE
 70
0
  3
Divide ____ . . ____ . . ____ . . ____ . . ____
 72
65
 73
6
 40
31.7500000000000036
 49
12.6999999999999993
 74
0
 49
-6.2999999999999998
 74
0
 49
0.1
 74
0
 49
-6.25
 74
0
 49
0.1
 74
0
 49
-6.2999999999999998
 74
0
  0
LTYPE
  5
4A
100
AcDbSymbolTableRecord
100
AcDbLinetypeTableRecord
  2
ACAD_ISO13W100
 70
0
  3
ISO double-dash double-dot __ __ . . __ __ . . _
 72
65
 73
8
 40
36.0000000000000071
 49
12.0
 74
0
 49
-3.0
 74
0
 49
12.0
 74
0
 49
-2.9500000000000002
 74
0
 49
0.1
 74
0
 49
-2.9000000000000004
 74
0
 49
0.1
 74
0
 49
-2.9500000000000002
 74
0
  0
LTYPE
  5
4B
100
AcDbSymbolTableRecord
100
AcDbLinetypeTableRecord
  2
BORDER
 70
0
  3
Border __ __ . __ __ . __ __ . __ __ . __ __ .
 72
65
 73
6
 40
44.4499999999999957
 49
12.6999999999999993
 74
0
 49
-6.3499999999999996
 74
0
 49
12.6999999999999993
 74
0
 49
-6.2999999999999998
 74
0
 49
0.1
 74
0
 49
-6.2999999999999998
 74
0
  0
LTYPE
  5
4C
100
AcDbSymbolTableRecord
100
AcDbLinetypeTableRecord
  2
ACAD_ISO08W100
 70
0
  3
ISO long-dash short-dash ____ __ ____ __ ____ _
 72
65
 73
4
 40
36.0
 49
24.0
 74
0
 49
-3.0
 74
0
 49
6.0
 74
0
 49
-3.0
 74
0
  0
LTYPE
  5
4D
100
AcDbSymbolTableRecord
100
AcDbLinetypeTableRecord
  2
DASHDOTX2
 70
0
  3
Dash dot (2x) ____  .  ____  .  ____  .  ___
 72
65
 73
4
 40
50.7999999999999972
 49
25.3999999999999986
 74
0
 49
-12.6499999999999986
 74
0
 49
0.1
 74
0
 49
-12.6499999999999986
 74
0
  0
LTYPE
  5
4E
100
AcDbSymbolTableRecord
100
AcDbLinetypeTableRecord
  2
ACAD_ISO04W100
 70
0
  3
ISO long-dash dot ____ . ____ . ____ . ____ . _
 72
65
 73
4
 40
30.0
 49
24.0
 74
0
 49
-2.9500000000000002
 74
0
 49
0.1
 74
0
 49
-2.9500000000000002
 74
0
  0
LTYPE
  5
4F
100
AcDbSymbolTableRecord
100
AcDbLinetypeTableRecord
  2
ACAD_ISO07W100
 70
0
  3
ISO dot . . . . . . . . . . . . . . . . . . . . 
 72
65
 73
2
 40
3.0
 49
0.1
 74
0
 49
-2.8999999999999999
 74
0
  0
LTYPE
  5
50
100
AcDbSymbolTableRecord
100
AcDbLinetypeTableRecord
  2
DOTX2
 70
0
  3
Dot (2x) .  .  .  .  .  .  .  .  .  .  .  .  .  .
 72
65
 73
2
 40
12.6999999999999993
 49
0.1
 74
0
 49
-12.5999999999999996
 74
0
  0
LTYPE
  5
51
100
AcDbSymbolTableRecord
100
AcDbLinetypeTableRecord
  2
PHANTOM
 70
0
  3
Phantom ______  __  __  ______  __  __  ______ 
 72
65
 73
6
 40
63.5000000000000071
 49
31.75
 74
0
 49
-6.3499999999999996
 74
0
 49
6.3499999999999996
 74
0
 49
-6.3499999999999996
 74
0
 49
6.3499999999999996
 74
0
 49
-6.3499999999999996
 74
0
  0
LTYPE
  5
52
100
AcDbSymbolTableRecord
100
AcDbLinetypeTableRecord
  2
ACAD_ISO10W100
 70
0
  3
ISO dash dot __ . __ . __ . __ . __ . __ . __ . 
 72
65
 73
4
 40
18.0
 49
12.0
 74
0
 49
-2.9500000000000002
 74
0
 49
0.1
 74
0
 49
-2.9500000000000002
 74
0
  0
LTYPE
  5
53
100
AcDbSymbolTableRecord
100
AcDbLinetypeTableRecord
  2
CENTER
 70
0
  3
Center ____ _ ____ _ ____ _ ____ _ ____ _ ____
 72
65
 73
4
 40
50.8000000000000043
 49
31.75
 74
0
 49
-6.3499999999999996
 74
0
 49
6.3499999999999996
 74
0
 49
-6.3499999999999996
 74
0
  0
LTYPE
  5
54
100
AcDbSymbolTableRecord
100
AcDbLinetypeTableRecord
  2
ACAD_ISO09W100
 70
0
  3
ISO long-dash double-short-dash ____ __ __ ____
 72
65
 73
6
 40
45.0
 49
24.0
 74
0
 49
-3.0
 74
0
 49
6.0
 74
0
 49
-3.0
 74
0
 49
6.0
 74
0
 49
-3.0
 74
0
  0
LTYPE
  5
55
100
AcDbSymbolTableRecord
100
AcDbLinetypeTableRecord
  2
DASHED
 70
0
  3
Dashed __ __ __ __ __ __ __ __ __ __ __ __ __ _
 72
65
 73
2
 40
19.0499999999999972
 49
12.6999999999999993
 74
0
 49
-6.3499999999999996
 74
0
  0
LTYPE
  5
56
100
AcDbSymbolTableRecord
100
AcDbLinetypeTableRecord
  2
DASHEDX2
 70
0
  3
Dashed (2x) ____  ____  ____  ____  ____  ___
 72
65
 73
2
 40
38.0999999999999943
 49
25.3999999999999986
 74
0
 49
-12.6999999999999993
 74
0
  0
ENDTAB
  0
TABLE
  2
LAYER
  5
2
100
AcDbSymbolTable
 70
1
  0
LAYER
  5
10
100
AcDbSymbolTableRecord
100
AcDbLayerTableRecord
  2
0
 70
0
 62
7
420
16777215
  6
Continuous
370
25
390
F
  0
ENDTAB
  0
TABLE
  2
STYLE
  5
3
100
AcDbSymbolTable
 70
1
  0
STYLE
  5
57
100
AcDbSymbolTableRecord
100
AcDbTextStyleTableRecord
  2
Standard
 70
0
 40
0.0
 41
1.0
 50
0.0
 71
0
 42
2.5
  3

  4

1001
ACAD
1000
txt
1071
0
  0
ENDTAB
  0
TABLE
  2
VIEW
  5
6
100
AcDbSymbolTable
 70
0
  0
ENDTAB
  0
TABLE
  2
UCS
  5
7
100
AcDbSymbolTable
 70
0
  0
ENDTAB
  0
TABLE
  2
APPID
  5
9
100
AcDbSymbolTable
 70
1
  0
APPID
  5
12
100
AcDbSymbolTableRecord
100
AcDbRegAppTableRecord
  2
ACAD
 70
0
  0
APPID
  5
58
100
AcDbSymbolTableRecord
100
AcDbRegAppTableRecord
  2
QCAD
 70
0
  0
ENDTAB
  0
TABLE
  2
DIMSTYLE
  5
A
100
AcDbSymbolTable
 70
1
100
AcDbDimStyleTable
 71
0
  0
DIMSTYLE
105
27
100
AcDbSymbolTableRecord
100
AcDbDimStyleTableRecord
  2
Standard
 41
2.5
 42
0.625
 43
3.75
 44
1.25
 70
0
 73
0
 74
0
 77
1
 78
8
140
2.5
141
2.5
143
0.03937007874016
147
0.625
171
3
172
1
271
2
272
2
274
3
278
44
283
0
284
8
340
57
  0
ENDTAB
  0
TABLE
  2
BLOCK_RECORD
  5
1
100
AcDbSymbolTable
 70
1
  0
BLOCK_RECORD
  5
1F
100
AcDbSymbolTableRecord
100
AcDbBlockTableRecord
  2
*Model_Space
340
22
  0
BLOCK_RECORD
  5
1B
100
AcDbSymbolTableRecord
100
AcDbBlockTableRecord
  2
*Paper_Space
340
1E
  0
BLOCK_RECORD
  5
23
100
AcDbSymbolTableRecord
100
AcDbBlockTableRecord
  2
*Paper_Space0
340
26
  0
ENDTAB
  0
ENDSEC
  0
SECTION
  2
BLOCKS
  0
BLOCK
  5
20
100
AcDbEntity
  8
0
100
AcDbBlockBegin
  2
*Model_Space
 70
0
 10
0.0
 20
0.0
 30
0.0
  3
*Model_Space
  1

  0
ENDBLK
  5
21
100
AcDbEntity
  8
0
100
AcDbBlockEnd
  0
BLOCK
  5
1C
100
AcDbEntity
 67
1
  8
0
100
AcDbBlockBegin
  2
*Paper_Space
 70
0
 10
0.0
 20
0.0
 30
0.0
  3
*Paper_Space
  1

  0
ENDBLK
  5
1D
100
AcDbEntity
 67
1
  8
0
100
AcDbBlockEnd
  0
BLOCK
  5
24
100
AcDbEntity
  8
0
100
AcDbBlockBegin
  2
*Paper_Space0
 70
0
 10
0.0
 20
0.0
 30
0.0
  3
*Paper_Space0
  1

  0
ENDBLK
  5
25
100
AcDbEntity
  8
0
100
AcDbBlockEnd
  0
ENDSEC
  0
SECTION
  2
ENTITIES
  0
LINE
  5
59
100
AcDbEntity
  8
0
 62
256
370
-1
 48
1.0
  6
BYLAYER
100
AcDbLine
 10
420.0
 20
19.9999999999999645
 30
0.0
 11
20.0
 21
20.0
 31
0.0
  0
LINE
  5
5A
100
AcDbEntity
  8
0
 62
256
370
-1
 48
1.0
  6
BYLAYER
100
AcDbLine
 10
20.0
 20
20.0
 30
0.0
 11
20.0
 21
620.0
 31
0.0
  0
LINE
  5
5B
100
AcDbEntity
  8
0
 62
256
370
-1
 48
1.0
  6
BYLAYER
100
AcDbLine
 10
420.0000000000000568
 20
620.0
 30
0.0
 11
420.0
 21
19.9999999999999645
 31
0.0
  0
CIRCLE
  5
5C
100
AcDbEntity
  8
0
 62
256
370
-1
 48
1.0
  6
BYLAYER
100
AcDbCircle
 10
150.0
 20
200.0
 30
0.0
 40
6.3499999999999996
  0
CIRCLE
  5
5D
100
AcDbEntity
  8
0
 62
256
370
-1
 48
1.0
  6
BYLAYER
100
AcDbCircle
 10
290.0
 20
200.0
 30
0.0
 40
6.3499999999999996
  0
CIRCLE
  5
5E
100
AcDbEntity
  8
0
 62
256
370
-1
 48
1.0
  6
BYLAYER
100
AcDbCircle
 10
290.0
 20
40.0
 30
0.0
 40
6.3499999999999996
  0
CIRCLE
  5
5F
100
AcDbEntity
  8
0
 62
256
370
-1
 48
1.0
  6
BYLAYER
100
AcDbCircle
 10
150.0
 20
40.0
 30
0.0
 40
6.3499999999999996
  0
CIRCLE
  5
60
100
AcDbEntity
  8
0
 62
256
370
-1
 48
1.0
  6
BYLAYER
100
AcDbCircle
 10
343.75
 20
270.0
 30
0.0
 40
6.3499999999999996
  0
CIRCLE
  5
61
100
AcDbEntity
  8
0
 62
256
370
-1
 48
1.0
  6
BYLAYER
100
AcDbCircle
 10
71.0
 20
270.0
 30
0.0
 40
6.3499999999999996
  0
CIRCLE
  5
62
100
AcDbEntity
  8
0
 62
256
370
-1
 48
1.0
  6
BYLAYER
100
AcDbCircle
 10
343.75
 20
330.0
 30
0.0
 40
6.3499999999999996
  0
CIRCLE
  5
63
100
AcDbEntity
  8
0
 62
256
370
-1
 48
1.0
  6
BYLAYER
100
AcDbCircle
 10
71.0
 20
330.0
 30
0.0
 40
6.3499999999999996
  0
CIRCLE
  5
64
100
AcDbEntity
  8
0
 62
256
370
-1
 48
1.0
  6
BYLAYER
100
AcDbCircle
 10
343.75
 20
390.0
 30
0.0
 40
6.3499999999999996
  0
CIRCLE
  5
65
100
AcDbEntity
  8
0
 62
256
370
-1
 48
1.0
  6
BYLAYER
100
AcDbCircle
 10
71.0
 20
390.0
 30
0.0
 40
6.3499999999999996
  0
CIRCLE
  5
66
100
AcDbEntity
  8
0
 62
256
370
-1
 48
1.0
  6
BYLAYER
100
AcDbCircle
 10
343.75
 20
450.0
 30
0.0
 40
6.3499999999999996
  0
CIRCLE
  5
67
100
AcDbEntity
  8
0
 62
256
370
-1
 48
1.0
  6
BYLAYER
100
AcDbCircle
 10
71.0
 20
450.0
 30
0.0
 40
6.3499999999999996
  0
CIRCLE
  5
68
100
AcDbEntity
  8
0
 62
256
370
-1
 48
1.0
  6
BYLAYER
100
AcDbCircle
 10
343.75
 20
510.0
 30
0.0
 40
6.3499999999999996
  0
CIRCLE
  5
69
100
AcDbEntity
  8
0
 62
256
370
-1
 48
1.0
  6
BYLAYER
100
AcDbCircle
 10
71.0
 20
510.0
 30
0.0
 40
6.3499999999999996
  0
CIRCLE
  5
6A
100
AcDbEntity
  8
0
 62
256
370
-1
 48
1.0
  6
BYLAYER
100
AcDbCircle
 10
343.75
 20
570.0
 30
0.0
 40
6.3499999999999996
  0
CIRCLE
  5
6B
100
AcDbEntity
  8
0
 62
256
370
-1
 48
1.0
  6
BYLAYER
100
AcDbCircle
 10
71.0
 20
570.0
 30
0.0
 40
6.3499999999999996
  0
CIRCLE
  5
6C
100
AcDbEntity
  8
0
 62
256
370
-1
 48
1.0
  6
BYLAYER
100
AcDbCircle
 10
369.0
 20
270.0
 30
0.0
 40
6.3499999999999996
  0
CIRCLE
  5
6D
100
AcDbEntity
  8
0
 62
256
370
-1
 48
1.0
  6
BYLAYER
100
AcDbCircle
 10
96.25
 20
270.0
 30
0.0
 40
6.3499999999999996
  0
CIRCLE
  5
6E
100
AcDbEntity
  8
0
 62
256
370
-1
 48
1.0
  6
BYLAYER
100
AcDbCircle
 10
369.0
 20
330.0
 30
0.0
 40
6.3499999999999996
  0
CIRCLE
  5
6F
100
AcDbEntity
  8
0
 62
256
370
-1
 48
1.0
  6
BYLAYER
100
AcDbCircle
 10
96.25
 20
330.0
 30
0.0
 40
6.3499999999999996
  0
CIRCLE
  5
70
100
AcDbEntity
  8
0
 62
256
370
-1
 48
1.0
  6
BYLAYER
100
AcDbCircle
 10
369.0
 20
390.0
 30
0.0
 40
6.3499999999999996
  0
CIRCLE
  5
71
100
AcDbEntity
  8
0
 62
256
370
-1
 48
1.0
  6
BYLAYER
100
AcDbCircle
 10
96.25
 20
390.0
 30
0.0
 40
6.3499999999999996
  0
CIRCLE
  5
72
100
AcDbEntity
  8
0
 62
256
370
-1
 48
1.0
  6
BYLAYER
100
AcDbCircle
 10
369.0
 20
450.0
 30
0.0
 40
6.3499999999999996
  0
CIRCLE
  5
73
100
AcDbEntity
  8
0
 62
256
370
-1
 48
1.0
  6
BYLAYER
100
AcDbCircle
 10
96.25
 20
450.0
 30
0.0
 40
6.3499999999999996
  0
CIRCLE
  5
74
100
AcDbEntity
  8
0
 62
256
370
-1
 48
1.0
  6
BYLAYER
100
AcDbCircle
 10
369.0
 20
510.0
 30
0.0
 40
6.3499999999999996
  0
CIRCLE
  5
75
100
AcDbEntity
  8
0
 62
256
370
-1
 48
1.0
  6
BYLAYER
100
AcDbCircle
 10
96.25
 20
510.0
 30
0.0
 40
6.3499999999999996
  0
CIRCLE
  5
76
100
AcDbEntity
  8
0
 62
256
370
-1
 48
1.0
  6
BYLAYER
100
AcDbCircle
 10
369.0
 20
570.0
 30
0.0
 40
6.3499999999999996
  0
CIRCLE
  5
77
100
AcDbEntity
  8
0
 62
256
370
-1
 48
1.0
  6
BYLAYER
100
AcDbCircle
 10
96.25
 20
570.0
 30
0.0
 40
6.3499999999999996
  0
LINE
  5
78
100
AcDbEntity
  8
0
 62
256
370
-1
 48
1.0
  6
DASHEDX2
100
AcDbLine
 10
460.0
 20
310.0
 30
0.0
 11
460.0
 21
397.7639320225002848
 31
0.0
  0
LINE
  5
79
100
AcDbEntity
  8
0
 62
256
370
-1
 48
1.0
  6
DASHEDX2
100
AcDbLine
 10
459.9999999999999432
 20
20.0
 30
0.0
 11
460.0
 21
107.763932022500228
 31
0.0
  0
LINE
  5
7A
100
AcDbEntity
  8
0
 62
256
370
-1
 48
1.0
  6
DASHEDX2
100
AcDbLine
 10
460.0
 20
402.2360679774998289
 30
0.0
 11
460.0
 21
580.0
 31
0.0
  0
LINE
  5
7B
100
AcDbEntity
  8
0
 62
256
370
-1
 48
1.0
  6
DASHEDX2
100
AcDbLine
 10
460.0
 20
112.2360679774998289
 30
0.0
 11
460.0
 21
290.0
 31
0.0
  0
LINE
  5
7C
100
AcDbEntity
  8
0
 62
256
370
-1
 48
1.0
  6
BYLAYER
100
AcDbLine
 10
460.0
 20
580.0
 30
0.0
 11
560.0
 21
580.0
 31
0.0
  0
LINE
  5
7D
100
AcDbEntity
  8
0
 62
256
370
-1
 48
1.0
  6
BYLAYER
100
AcDbLine
 10
460.0
 20
290.0
 30
0.0
 11
560.0
 21
290.0
 31
0.0
  0
LINE
  5
7E
100
AcDbEntity
  8
0
 62
256
370
-1
 48
1.0
  6
DASHEDX2
100
AcDbLine
 10
560.0
 20
580.0
 30
0.0
 11
560.0
 21
402.2360679774998289
 31
0.0
  0
LINE
  5
7F
100
AcDbEntity
  8
0
 62
256
370
-1
 48
1.0
  6
DASHEDX2
100
AcDbLine
 10
560.0
 20
290.0
 30
0.0
 11
560.0
 21
112.2360679774998289
 31
0.0
  0
LINE
  5
80
100
AcDbEntity
  8
0
 62
256
370
-1
 48
1.0
  6
DASHEDX2
100
AcDbLine
 10
559.9999999999998863
 20
437.7639320225002848
 30
0.0
 11
560.0
 21
310.0
 31
0.0
  0
LINE
  5
81
100
AcDbEntity
  8
0
 62
256
370
-1
 48
1.0
  6
DASHEDX2
100
AcDbLine
 10
560.0
 20
147.763932022500228
 30
0.0
 11
560.0
 21
20.0
 31
0.0
  0
LINE
  5
82
100
AcDbEntity
  8
0
 62
256
370
-1
 48
1.0
  6
BYLAYER
100
AcDbLine
 10
560.0
 20
310.0
 30
0.0
 11
459.9999999999998863
 21
310.0
 31
0.0
  0
LINE
  5
83
100
AcDbEntity
  8
0
 62
256
370
-1
 48
1.0
  6
BYLAYER
100
AcDbLine
 10
560.0
 20
20.0
 30
0.0
 11
459.9999999999998863
 21
20.0
 31
0.0
  0
LINE
  5
84
100
AcDbEntity
  8
0
 62
256
370
-1
 48
1.0
  6
DASHEDX2
100
AcDbLine
 10
557.7639320225002848
 20
400.0
 30
0.0
 11
462.2360679774997152
 21
400.0
 31
0.0
  0
LINE
  5
85
100
AcDbEntity
  8
0
 62
256
370
-1
 48
1.0
  6
DASHEDX2
100
AcDbLine
 10
557.7639320225002848
 20
110.0
 30
0.0
 11
462.2360679774997152
 21
110.0
 31
0.0
  0
LINE
  5
86
100
AcDbEntity
  8
0
 62
256
370
-1
 48
1.0
  6
DASHEDX2
100
AcDbLine
 10
460.0
 20
600.0
 30
0.0
 11
460.0
 21
660.0
 31
0.0
  0
LINE
  5
87
100
AcDbEntity
  8
0
 62
256
370
-1
 48
1.0
  6
DASHEDX2
100
AcDbLine
 10
460.0000000000000568
 20
700.0
 30
0.0
 11
460.0000000000001137
 21
830.0
 31
0.0
  0
LINE
  5
88
100
AcDbEntity
  8
0
 62
256
370
-1
 48
1.0
  6
DASHEDX2
100
AcDbLine
 10
460.0
 20
870.0
 30
0.0
 11
460.0
 21
930.0
 31
0.0
  0
LINE
  5
89
100
AcDbEntity
  8
0
 62
256
370
-1
 48
1.0
  6
DASHEDX2
100
AcDbLine
 10
560.0000000000003411
 20
930.0
 30
0.0
 11
560.0
 21
870.0
 31
0.0
  0
LINE
  5
8A
100
AcDbEntity
  8
0
 62
256
370
-1
 48
1.0
  6
DASHEDX2
100
AcDbLine
 10
560.0000000000001137
 20
830.0000000000001137
 30
0.0
 11
560.0000000000001137
 21
700.0
 31
0.0
  0
LINE
  5
8B
100
AcDbEntity
  8
0
 62
256
370
-1
 48
1.0
  6
DASHEDX2
100
AcDbLine
 10
560.0
 20
659.9999999999998863
 30
0.0
 11
560.0
 21
600.0
 31
0.0
  0
LINE
  5
8C
100
AcDbEntity
  8
0
 62
256
370
-1
 48
1.0
  6
DASHEDX2
100
AcDbLine
 10
462.2360679774997152
 20
849.9999999999998863
 30
0.0
 11
557.7639320225002848
 21
850.0
 31
0.0
  0
LINE
  5
8D
100
AcDbEntity
  8
0
 62
256
370
-1
 48
1.0
  6
DASHEDX2
100
AcDbLine
 10
557.7639320225000574
 20
680.0
 30
0.0
 11
462.2360679774997152
 21
680.0
 31
0.0
  0
LINE
  5
8E
100
AcDbEntity
  8
0
 62
256
370
-1
 48
1.0
  6
BYLAYER
100
AcDbLine
 10
530.0
 20
680.0
 30
0.0
 11
530.0
 21
680.0
 31
0.0
  0
LINE
  5
8F
100
AcDbEntity
  8
0
 62
256
370
-1
 48
1.0
  6
BYLAYER
100
AcDbLine
 10
560.0
 20
600.0
 30
0.0
 11
460.0
 21
600.0
 31
0.0
  0
LINE
  5
90
100
AcDbEntity
  8
0
 62
256
370
-1
 48
1.0
  6
BYLAYER
100
AcDbLine
 10
560.0000000000003411
 20
930.0
 30
0.0
 11
460.0
 21
930.0
 31
0.0
  0
LINE
  5
91
100
AcDbEntity
  8
0
 62
256
370
-1
 48
1.0
  6
BYLAYER
100
AcDbLine
 10
560.0
 20
310.0
 30
0.0
 11
580.0
 21
310.0
 31
0.0
  0
LINE
  5
92
100
AcDbEntity
  8
0
 62
256
370
-1
 48
1.0
  6
BYLAYER
100
AcDbLine
 10
560.0
 20
20.0
 30
0.0
 11
580.0
 21
20.0
 31
0.0
  0
LINE
  5
93
100
AcDbEntity
  8
0
 62
256
370
-1
 48
1.0
  6
BYLAYER
100
AcDbLine
 10
580.0
 20
310.0
 30
0.0
 11
580.0
 21
378.0
 31
0.0
  0
LINE
  5
94
100
AcDbEntity
  8
0
 62
256
370
-1
 48
1.0
  6
BYLAYER
100
AcDbLine
 10
580.0
 20
20.0
 30
0.0
 11
580.0
 21
88.0
 31
0.0
  0
LINE
  5
95
100
AcDbEntity
  8
0
 62
256
370
-1
 48
1.0
  6
BYLAYER
100
AcDbLine
 10
580.0
 20
378.0
 30
0.0
 11
561.0
 21
398.0
 31
0.0
  0
LINE
  5
96
100
AcDbEntity
  8
0
 62
256
370
-1
 48
1.0
  6
BYLAYER
100
AcDbLine
 10
580.0
 20
88.0
 30
0.0
 11
561.0
 21
108.0
 31
0.0
  0
LINE
  5
97
100
AcDbEntity
  8
0
 62
256
370
-1
 48
1.0
  6
BYLAYER
100
AcDbLine
 10
459.0
 20
398.0
 30
0.0
 11
440.0
 21
377.9999999999999432
 31
0.0
  0
LINE
  5
98
100
AcDbEntity
  8
0
 62
256
370
-1
 48
1.0
  6
BYLAYER
100
AcDbLine
 10
459.0
 20
108.0
 30
0.0
 11
440.0
 21
88.0
 31
0.0
  0
LINE
  5
99
100
AcDbEntity
  8
0
 62
256
370
-1
 48
1.0
  6
BYLAYER
100
AcDbLine
 10
440.0
 20
377.9999999999999432
 30
0.0
 11
440.0
 21
310.0
 31
0.0
  0
LINE
  5
9A
100
AcDbEntity
  8
0
 62
256
370
-1
 48
1.0
  6
BYLAYER
100
AcDbLine
 10
440.0
 20
88.0
 30
0.0
 11
440.0
 21
20.0
 31
0.0
  0
LINE
  5
9B
100
AcDbEntity
  8
0
 62
256
370
-1
 48
1.0
  6
BYLAYER
100
AcDbLine
 10
440.0
 20
310.0
 30
0.0
 11
460.0
 21
310.0
 31
0.0
  0
LINE
  5
9C
100
AcDbEntity
  8
0
 62
256
370
-1
 48
1.0
  6
BYLAYER
100
AcDbLine
 10
440.0
 20
20.0
 30
0.0
 11
460.0
 21
20.0
 31
0.0
  0
LINE
  5
9D
100
AcDbEntity
  8
0
 62
256
370
-1
 48
1.0
  6
BYLAYER
100
AcDbLine
 10
460.0
 20
580.0
 30
0.0
 11
440.0000000000001137
 21
580.0
 31
0.0
  0
LINE
  5
9E
100
AcDbEntity
  8
0
 62
256
370
-1
 48
1.0
  6
BYLAYER
100
AcDbLine
 10
460.0
 20
290.0
 30
0.0
 11
440.0
 21
290.0
 31
0.0
  0
LINE
  5
9F
100
AcDbEntity
  8
0
 62
256
370
-1
 48
1.0
  6
BYLAYER
100
AcDbLine
 10
440.0000000000001137
 20
580.0
 30
0.0
 11
440.0
 21
422.0
 31
0.0
  0
LINE
  5
A0
100
AcDbEntity
  8
0
 62
256
370
-1
 48
1.0
  6
BYLAYER
100
AcDbLine
 10
440.0
 20
290.0
 30
0.0
 11
440.0
 21
132.0
 31
0.0
  0
LINE
  5
A1
100
AcDbEntity
  8
0
 62
256
370
-1
 48
1.0
  6
BYLAYER
100
AcDbLine
 10
440.0
 20
422.0
 30
0.0
 11
459.0
 21
402.0
 31
0.0
  0
LINE
  5
A2
100
AcDbEntity
  8
0
 62
256
370
-1
 48
1.0
  6
BYLAYER
100
AcDbLine
 10
440.0
 20
132.0
 30
0.0
 11
459.0
 21
112.0
 31
0.0
  0
LINE
  5
A3
100
AcDbEntity
  8
0
 62
256
370
-1
 48
1.0
  6
BYLAYER
100
AcDbLine
 10
561.0000000000001137
 20
402.0
 30
0.0
 11
580.0
 21
422.0
 31
0.0
  0
LINE
  5
A4
100
AcDbEntity
  8
0
 62
256
370
-1
 48
1.0
  6
BYLAYER
100
AcDbLine
 10
561.0
 20
112.0
 30
0.0
 11
580.0
 21
132.0
 31
0.0
  0
LINE
  5
A5
100
AcDbEntity
  8
0
 62
256
370
-1
 48
1.0
  6
BYLAYER
100
AcDbLine
 10
580.0
 20
422.0
 30
0.0
 11
580.0
 21
580.0
 31
0.0
  0
LINE
  5
A6
100
AcDbEntity
  8
0
 62
256
370
-1
 48
1.0
  6
BYLAYER
100
AcDbLine
 10
580.0
 20
132.0
 30
0.0
 11
580.0
 21
290.0
 31
0.0
  0
LINE
  5
A7
100
AcDbEntity
  8
0
 62
256
370
-1
 48
1.0
  6
BYLAYER
100
AcDbLine
 10
580.0
 20
580.0
 30
0.0
 11
560.0
 21
580.0
 31
0.0
  0
LINE
  5
A8
100
AcDbEntity
  8
0
 62
256
370
-1
 48
1.0
  6
BYLAYER
100
AcDbLine
 10
580.0
 20
290.0
 30
0.0
 11
560.0
 21
290.0
 31
0.0
  0
ARC
  5
A9
100
AcDbEntity
  8
0
 62
256
370
-1
 48
1.0
  6
BYLAYER
100
AcDbCircle
 10
560.0
 20
400.0
 30
0.0
 40
2.2360679774997645
100
AcDbArc
 50
63.4349488229233316
 51
296.5650511770764979
  0
ARC
  5
AA
100
AcDbEntity
  8
0
 62
256
370
-1
 48
1.0
  6
BYLAYER
100
AcDbCircle
 10
560.0
 20
110.0
 30
0.0
 40
2.2360679774997645
100
AcDbArc
 50
63.4349488229233245
 51
296.5650511770764979
  0
ARC
  5
AB
100
AcDbEntity
  8
0
 62
256
370
-1
 48
1.0
  6
BYLAYER
100
AcDbCircle
 10
460.0
 20
400.0
 30
0.0
 40
2.2360679774997898
100
AcDbArc
 50
243.4349488229221663
 51
116.56505117707799
  0
ARC
  5
AC
100
AcDbEntity
  8
0
 62
256
370
-1
 48
1.0
  6
BYLAYER
100
AcDbCircle
 10
460.0
 20
110.0
 30
0.0
 40
2.2360679774997898
100
AcDbArc
 50
243.4349488229221663
 51
116.56505117707799
  0
LINE
  5
AD
100
AcDbEntity
  8
0
 62
256
370
-1
 48
1.0
  6
BYLAYER
100
AcDbLine
 10
460.0
 20
600.0
 30
0.0
 11
440.0
 21
600.0
 31
0.0
  0
LINE
  5
AE
100
AcDbEntity
  8
0
 62
256
370
-1
 48
1.0
  6
BYLAYER
100
AcDbLine
 10
440.0
 20
600.0
 30
0.0
 11
440.0
 21
654.0
 31
0.0
  0
LINE
  5
AF
100
AcDbEntity
  8
0
 62
256
370
-1
 48
1.0
  6
BYLAYER
100
AcDbLine
 10
444.0
 20
658.0
 30
0.0
 11
460.0
 21
658.0
 31
0.0
  0
LINE
  5
B0
100
AcDbEntity
  8
0
 62
256
370
-1
 48
1.0
  6
BYLAYER
100
AcDbLine
 10
560.0
 20
658.0
 30
0.0
 11
576.0
 21
658.0
 31
0.0
  0
LINE
  5
B1
100
AcDbEntity
  8
0
 62
256
370
-1
 48
1.0
  6
BYLAYER
100
AcDbLine
 10
580.0
 20
654.0
 30
0.0
 11
580.0
 21
600.0
 31
0.0
  0
LINE
  5
B2
100
AcDbEntity
  8
0
 62
256
370
-1
 48
1.0
  6
BYLAYER
100
AcDbLine
 10
580.0
 20
600.0
 30
0.0
 11
560.0
 21
600.0
 31
0.0
  0
LINE
  5
B3
100
AcDbEntity
  8
0
 62
256
370
-1
 48
1.0
  6
BYLAYER
100
AcDbLine
 10
460.0000000000000568
 20
700.0
 30
0.0
 11
444.0
 21
700.0
 31
0.0
  0
LINE
  5
B4
100
AcDbEntity
  8
0
 62
256
370
-1
 48
1.0
  6
BYLAYER
100
AcDbLine
 10
440.0
 20
704.0
 30
0.0
 11
440.0
 21
824.0
 31
0.0
  0
LINE
  5
B5
100
AcDbEntity
  8
0
 62
256
370
-1
 48
1.0
  6
BYLAYER
100
AcDbLine
 10
444.0
 20
828.0
 30
0.0
 11
460.0000000000001137
 21
828.0
 31
0.0
  0
LINE
  5
B6
100
AcDbEntity
  8
0
 62
256
370
-1
 48
1.0
  6
BYLAYER
100
AcDbLine
 10
560.0
 20
828.0
 30
0.0
 11
576.0000000000001137
 21
828.0
 31
0.0
  0
LINE
  5
B7
100
AcDbEntity
  8
0
 62
256
370
-1
 48
1.0
  6
BYLAYER
100
AcDbLine
 10
580.0
 20
824.0
 30
0.0
 11
580.0
 21
706.0
 31
0.0
  0
LINE
  5
B8
100
AcDbEntity
  8
0
 62
256
370
-1
 48
1.0
  6
BYLAYER
100
AcDbLine
 10
575.9999999999997726
 20
702.0
 30
0.0
 11
560.0000000000002274
 21
701.9999999999998863
 31
0.0
  0
LINE
  5
B9
100
AcDbEntity
  8
0
 62
256
370
-1
 48
1.0
  6
BYLAYER
100
AcDbLine
 10
460.0
 20
930.0
 30
0.0
 11
440.0000000000001137
 21
930.0
 31
0.0
  0
LINE
  5
BA
100
AcDbEntity
  8
0
 62
256
370
-1
 48
1.0
  6
BYLAYER
100
AcDbLine
 10
440.0000000000001137
 20
930.0
 30
0.0
 11
440.0000000000002274
 21
876.0
 31
0.0
  0
LINE
  5
BB
100
AcDbEntity
  8
0
 62
256
370
-1
 48
1.0
  6
BYLAYER
100
AcDbLine
 10
444.0
 20
872.0
 30
0.0
 11
460.0000000000000568
 21
872.0
 31
0.0
  0
LINE
  5
BC
100
AcDbEntity
  8
0
 62
256
370
-1
 48
1.0
  6
BYLAYER
100
AcDbLine
 10
560.0000000000003411
 20
872.0
 30
0.0
 11
576.0000000000014779
 21
872.0
 31
0.0
  0
LINE
  5
BD
100
AcDbEntity
  8
0
 62
256
370
-1
 48
1.0
  6
BYLAYER
100
AcDbLine
 10
580.0000000000001137
 20
876.0
 30
0.0
 11
580.0
 21
930.0
 31
0.0
  0
LINE
  5
BE
100
AcDbEntity
  8
0
 62
256
370
-1
 48
1.0
  6
BYLAYER
100
AcDbLine
 10
580.0
 20
930.0
 30
0.0
 11
560.0000000000003411
 21
930.0
 31
0.0
  0
ARC
  5
BF
100
AcDbEntity
  8
0
 62
256
370
-1
 48
1.0
  6
BYLAYER
100
AcDbCircle
 10
460.0000000000004547
 20
680.0000000000003411
 30
0.0
 40
2.236067977499431
100
AcDbArc
 50
269.9999999999884039
 51
90.0000000000116529
  0
ARC
  5
C0
100
AcDbEntity
  8
0
 62
256
370
-1
 48
1.0
  6
BYLAYER
100
AcDbCircle
 10
460.0
 20
850.0
 30
0.0
 40
2.236067977499431
100
AcDbArc
 50
269.9999999999926672
 51
90.0000000000014779
  0
ARC
  5
C1
100
AcDbEntity
  8
0
 62
256
370
-1
 48
1.0
  6
BYLAYER
100
AcDbCircle
 10
560.0000000000002274
 20
850.0
 30
0.0
 40
2.2360679774996015
100
AcDbArc
 50
90.000000000005798
 51
269.999999999994202
  0
ARC
  5
C2
100
AcDbEntity
  8
0
 62
256
370
-1
 48
1.0
  6
BYLAYER
100
AcDbCircle
 10
560.0000000000001137
 20
680.0
 30
0.0
 40
2.2360679774997152
100
AcDbArc
 50
90.000000000002899
 51
269.9999999999971578
  0
LINE
  5
C3
100
AcDbEntity
  8
0
 62
256
370
-1
 48
1.0
  6
BYLAYER
100
AcDbLine
 10
20.0
 20
620.0
 30
0.0
 11
420.0000000000000568
 21
620.0
 31
0.0
  0
LINE
  5
C4
100
AcDbEntity
  8
0
 62
256
370
-1
 48
1.0
  6
BYLAYER
100
AcDbLine
 10
323.0
 20
780.0
 30
0.0
 11
183.0
 21
780.0
 31
0.0
  0
LINE
  5
C5
100
AcDbEntity
  8
0
 62
256
370
-1
 48
1.0
  6
BYLAYER
100
AcDbLine
 10
323.0
 20
820.0
 30
0.0
 11
183.0
 21
820.0
 31
0.0
  0
LINE
  5
C6
100
AcDbEntity
  8
0
 62
256
370
-1
 48
1.0
  6
BYLAYER
100
AcDbLine
 10
160.0
 20
860.0
 30
0.0
 11
20.0
 21
860.0
 31
0.0
  0
LINE
  5
C7
100
AcDbEntity
  8
0
 62
256
370
-1
 48
1.0
  6
BYLAYER
100
AcDbLine
 10
323.0
 20
740.0
 30
0.0
 11
183.0
 21
740.0
 31
0.0
  0
LINE
  5
C8
100
AcDbEntity
  8
0
 62
256
370
-1
 48
1.0
  6
BYLAYER
100
AcDbLine
 10
183.0
 20
780.0
 30
0.0
 11
183.0
 21
760.0
 31
0.0
  0
LINE
  5
C9
100
AcDbEntity
  8
0
 62
256
370
-1
 48
1.0
  6
BYLAYER
100
AcDbLine
 10
183.0
 20
820.0
 30
0.0
 11
183.0
 21
800.0
 31
0.0
  0
LINE
  5
CA
100
AcDbEntity
  8
0
 62
256
370
-1
 48
1.0
  6
BYLAYER
100
AcDbLine
 10
20.0
 20
860.0
 30
0.0
 11
20.0
 21
840.0
 31
0.0
  0
LINE
  5
CB
100
AcDbEntity
  8
0
 62
256
370
-1
 48
1.0
  6
BYLAYER
100
AcDbLine
 10
183.0
 20
740.0
 30
0.0
 11
183.0
 21
720.0
 31
0.0
  0
LINE
  5
CC
100
AcDbEntity
  8
0
 62
256
370
-1
 48
1.0
  6
BYLAYER
100
AcDbLine
 10
183.0
 20
760.0
 30
0.0
 11
323.0
 21
760.0
 31
0.0
  0
LINE
  5
CD
100
AcDbEntity
  8
0
 62
256
370
-1
 48
1.0
  6
BYLAYER
100
AcDbLine
 10
183.0
 20
800.0
 30
0.0
 11
323.0
 21
800.0
 31
0.0
  0
LINE
  5
CE
100
AcDbEntity
  8
0
 62
256
370
-1
 48
1.0
  6
BYLAYER
100
AcDbLine
 10
20.0
 20
840.0
 30
0.0
 11
160.0
 21
840.0
 31
0.0
  0
LINE
  5
CF
100
AcDbEntity
  8
0
 62
256
370
-1
 48
1.0
  6
BYLAYER
100
AcDbLine
 10
183.0
 20
720.0
 30
0.0
 11
323.0
 21
720.0
 31
0.0
  0
LINE
  5
D0
100
AcDbEntity
  8
0
 62
256
370
-1
 48
1.0
  6
BYLAYER
100
AcDbLine
 10
323.0
 20
760.0
 30
0.0
 11
323.0
 21
780.0
 31
0.0
  0
LINE
  5
D1
100
AcDbEntity
  8
0
 62
256
370
-1
 48
1.0
  6
BYLAYER
100
AcDbLine
 10
323.0
 20
800.0
 30
0.0
 11
323.0
 21
820.0
 31
0.0
  0
LINE
  5
D2
100
AcDbEntity
  8
0
 62
256
370
-1
 48
1.0
  6
BYLAYER
100
AcDbLine
 10
160.0
 20
840.0
 30
0.0
 11
160.0
 21
860.0
 31
0.0
  0
LINE
  5
D3
100
AcDbEntity
  8
0
 62
256
370
-1
 48
1.0
  6
BYLAYER
100
AcDbLine
 10
323.0
 20
720.0
 30
0.0
 11
323.0
 21
740.0
 31
0.0
  0
LINE
  5
D4
100
AcDbEntity
  8
0
 62
256
370
-1
 48
1.0
  6
BYLAYER
100
AcDbLine
 10
160.0
 20
780.0
 30
0.0
 11
160.0
 21
760.0
 31
0.0
  0
LINE
  5
D5
100
AcDbEntity
  8
0
 62
256
370
-1
 48
1.0
  6
BYLAYER
100
AcDbLine
 10
323.0
 20
860.0
 30
0.0
 11
323.0
 21
840.0
 31
0.0
  0
LINE
  5
D6
100
AcDbEntity
  8
0
 62
256
370
-1
 48
1.0
  6
BYLAYER
100
AcDbLine
 10
160.0
 20
820.0
 30
0.0
 11
160.0
 21
800.0
 31
0.0
  0
LINE
  5
D7
100
AcDbEntity
  8
0
 62
256
370
-1
 48
1.0
  6
BYLAYER
100
AcDbLine
 10
160.0
 20
740.0
 30
0.0
 11
160.0
 21
720.0
 31
0.0
  0
LINE
  5
D8
100
AcDbEntity
  8
0
 62
256
370
-1
 48
1.0
  6
BYLAYER
100
AcDbLine
 10
160.0
 20
760.0
 30
0.0
 11
20.0
 21
760.0
 31
0.0
  0
LINE
  5
D9
100
AcDbEntity
  8
0
 62
256
370
-1
 48
1.0
  6
BYLAYER
100
AcDbLine
 10
323.0
 20
840.0
 30
0.0
 11
183.0
 21
840.0
 31
0.0
  0
LINE
  5
DA
100
AcDbEntity
  8
0
 62
256
370
-1
 48
1.0
  6
BYLAYER
100
AcDbLine
 10
160.0
 20
800.0
 30
0.0
 11
20.0
 21
800.0
 31
0.0
  0
LINE
  5
DB
100
AcDbEntity
  8
0
 62
256
370
-1
 48
1.0
  6
BYLAYER
100
AcDbLine
 10
160.0
 20
720.0
 30
0.0
 11
20.0
 21
720.0
 31
0.0
  0
LINE
  5
DC
100
AcDbEntity
  8
0
 62
256
370
-1
 48
1.0
  6
BYLAYER
100
AcDbLine
 10
20.0
 20
760.0
 30
0.0
 11
20.0
 21
780.0
 31
0.0
  0
LINE
  5
DD
100
AcDbEntity
  8
0
 62
256
370
-1
 48
1.0
  6
BYLAYER
100
AcDbLine
 10
183.0
 20
840.0
 30
0.0
 11
183.0
 21
860.0
 31
0.0
  0
LINE
  5
DE
100
AcDbEntity
  8
0
 62
256
370
-1
 48
1.0
  6
BYLAYER
100
AcDbLine
 10
20.0
 20
800.0
 30
0.0
 11
20.0
 21
820.0
 31
0.0
  0
LINE
  5
DF
100
AcDbEntity
  8
0
 62
256
370
-1
 48
1.0
  6
BYLAYER
100
AcDbLine
 10
20.0
 20
720.0
 30
0.0
 11
20.0
 21
740.0
 31
0.0
  0
LINE
  5
E0
100
AcDbEntity
  8
0
 62
256
370
-1
 48
1.0
  6
BYLAYER
100
AcDbLine
 10
20.0
 20
780.0
 30
0.0
 11
20.0
 21
780.0
 31
0.0
  0
LINE
  5
E1
100
AcDbEntity
  8
0
 62
256
370
-1
 48
1.0
  6
BYLAYER
100
AcDbLine
 10
183.0
 20
860.0
 30
0.0
 11
183.0
 21
860.0
 31
0.0
  0
LINE
  5
E2
100
AcDbEntity
  8
0
 62
256
370
-1
 48
1.0
  6
BYLAYER
100
AcDbLine
 10
20.0
 20
820.0
 30
0.0
 11
20.0
 21
820.0
 31
0.0
  0
LINE
  5
E3
100
AcDbEntity
  8
0
 62
256
370
-1
 48
1.0
  6
BYLAYER
100
AcDbLine
 10
20.0
 20
740.0
 30
0.0
 11
20.0
 21
740.0
 31
0.0
  0
LINE
  5
E4
100
AcDbEntity
  8
0
 62
256
370
-1
 48
1.0
  6
BYLAYER
100
AcDbLine
 10
20.0
 20
780.0
 30
0.0
 11
160.0
 21
780.0
 31
0.0
  0
LINE
  5
E5
100
AcDbEntity
  8
0
 62
256
370
-1
 48
1.0
  6
BYLAYER
100
AcDbLine
 10
183.0
 20
860.0
 30
0.0
 11
323.0
 21
860.0
 31
0.0
  0
LINE
  5
E6
100
AcDbEntity
  8
0
 62
256
370
-1
 48
1.0
  6
BYLAYER
100
AcDbLine
 10
20.0
 20
820.0
 30
0.0
 11
160.0
 21
820.0
 31
0.0
  0
LINE
  5
E7
100
AcDbEntity
  8
0
 62
256
370
-1
 48
1.0
  6
BYLAYER
100
AcDbLine
 10
20.0
 20
740.0
 30
0.0
 11
160.0
 21
740.0
 31
0.0
  0
CIRCLE
  5
E8
100
AcDbEntity
  8
0
 62
256
370
-1
 48
1.0
  6
BYLAYER
100
AcDbCircle
 10
32.0
 20
770.0
 30
0.0
 40
5.5
  0
CIRCLE
  5
E9
100
AcDbEntity
  8
0
 62
256
370
-1
 48
1.0
  6
BYLAYER
100
AcDbCircle
 10
195.0
 20
850.0
 30
0.0
 40
5.5
  0
CIRCLE
  5
EA
100
AcDbEntity
  8
0
 62
256
370
-1
 48
1.0
  6
BYLAYER
100
AcDbCircle
 10
32.0
 20
810.0
 30
0.0
 40
5.5
  0
CIRCLE
  5
EB
100
AcDbEntity
  8
0
 62
256
370
-1
 48
1.0
  6
BYLAYER
100
AcDbCircle
 10
32.0
 20
730.0
 30
0.0
 40
5.5
  0
CIRCLE
  5
EC
100
AcDbEntity
  8
0
 62
256
370
-1
 48
1.0
  6
BYLAYER
100
AcDbCircle
 10
148.0
 20
770.0
 30
0.0
 40
5.5
  0
CIRCLE
  5
ED
100
AcDbEntity
  8
0
 62
256
370
-1
 48
1.0
  6
BYLAYER
100
AcDbCircle
 10
311.0
 20
850.0
 30
0.0
 40
5.5
  0
CIRCLE
  5
EE
100
AcDbEntity
  8
0
 62
256
370
-1
 48
1.0
  6
BYLAYER
100
AcDbCircle
 10
148.0
 20
810.0
 30
0.0
 40
5.5
  0
CIRCLE
  5
EF
100
AcDbEntity
  8
0
 62
256
370
-1
 48
1.0
  6
BYLAYER
100
AcDbCircle
 10
148.0
 20
730.0
 30
0.0
 40
5.5
  0
CIRCLE
  5
F0
100
AcDbEntity
  8
0
 62
256
370
-1
 48
1.0
  6
BYLAYER
100
AcDbCircle
 10
311.0
 20
770.0
 30
0.0
 40
5.5
  0
CIRCLE
  5
F1
100
AcDbEntity
  8
0
 62
256
370
-1
 48
1.0
  6
BYLAYER
100
AcDbCircle
 10
311.0
 20
810.0
 30
0.0
 40
5.5
  0
CIRCLE
  5
F2
100
AcDbEntity
  8
0
 62
256
370
-1
 48
1.0
  6
BYLAYER
100
AcDbCircle
 10
148.0
 20
850.0
 30
0.0
 40
5.5
  0
CIRCLE
  5
F3
100
AcDbEntity
  8
0
 62
256
370
-1
 48
1.0
  6
BYLAYER
100
AcDbCircle
 10
311.0
 20
730.0
 30
0.0
 40
5.5
  0
CIRCLE
  5
F4
100
AcDbEntity
  8
0
 62
256
370
-1
 48
1.0
  6
BYLAYER
100
AcDbCircle
 10
195.0
 20
770.0
 30
0.0
 40
5.5
  0
CIRCLE
  5
F5
100
AcDbEntity
  8
0
 62
256
370
-1
 48
1.0
  6
BYLAYER
100
AcDbCircle
 10
195.0
 20
810.0
 30
0.0
 40
5.5
  0
CIRCLE
  5
F6
100
AcDbEntity
  8
0
 62
256
370
-1
 48
1.0
  6
BYLAYER
100
AcDbCircle
 10
32.0
 20
850.0
 30
0.0
 40
5.5
  0
CIRCLE
  5
F7
100
AcDbEntity
  8
0
 62
256
370
-1
 48
1.0
  6
BYLAYER
100
AcDbCircle
 10
195.0
 20
730.0
 30
0.0
 40
5.5
  0
CIRCLE
  5
F8
100
AcDbEntity
  8
0
 62
256
370
-1
 48
1.0
  6
BYLAYER
100
AcDbCircle
 10
30.0
 20
965.0
 30
0.0
 40
6.3499999999999996
  0
CIRCLE
  5
F9
100
AcDbEntity
  8
0
 62
256
370
-1
 48
1.0
  6
BYLAYER
100
AcDbCircle
 10
70.0
 20
965.0
 30
0.0
 40
6.3499999999999996
  0
CIRCLE
  5
FA
100
AcDbEntity
  8
0
 62
256
370
-1
 48
1.0
  6
BYLAYER
100
AcDbCircle
 10
110.0
 20
965.0
 30
0.0
 40
6.3499999999999996
  0
CIRCLE
  5
FB
100
AcDbEntity
  8
0
 62
256
370
-1
 48
1.0
  6
BYLAYER
100
AcDbCircle
 10
150.0
 20
965.0
 30
0.0
 40
6.3499999999999996
  0
CIRCLE
  5
FC
100
AcDbEntity
  8
0
 62
256
370
-1
 48
1.0
  6
BYLAYER
100
AcDbCircle
 10
190.0
 20
965.0
 30
0.0
 40
6.3499999999999996
  0
CIRCLE
  5
FD
100
AcDbEntity
  8
0
 62
256
370
-1
 48
1.0
  6
BYLAYER
100
AcDbCircle
 10
230.0
 20
965.0
 30
0.0
 40
6.3499999999999996
  0
CIRCLE
  5
FE
100
AcDbEntity
  8
0
 62
256
370
-1
 48
1.0
  6
BYLAYER
100
AcDbCircle
 10
270.0
 20
965.0
 30
0.0
 40
6.3499999999999996
  0
CIRCLE
  5
FF
100
AcDbEntity
  8
0
 62
256
370
-1
 48
1.0
  6
BYLAYER
100
AcDbCircle
 10
310.0
 20
965.0
 30
0.0
 40
6.3499999999999996
  0
CIRCLE
  5
100
100
AcDbEntity
  8
0
 62
256
370
-1
 48
1.0
  6
BYLAYER
100
AcDbCircle
 10
350.0
 20
965.0
 30
0.0
 40
6.3499999999999996
  0
CIRCLE
  5
101
100
AcDbEntity
  8
0
 62
256
370
-1
 48
1.0
  6
BYLAYER
100
AcDbCircle
 10
390.0
 20
965.0
 30
0.0
 40
6.3499999999999996
  0
CIRCLE
  5
102
100
AcDbEntity
  8
0
 62
256
370
-1
 48
1.0
  6
BYLAYER
100
AcDbCircle
 10
430.0
 20
965.0
 30
0.0
 40
6.3499999999999996
  0
CIRCLE
  5
103
100
AcDbEntity
  8
0
 62
256
370
-1
 48
1.0
  6
BYLAYER
100
AcDbCircle
 10
470.0
 20
965.0
 30
0.0
 40
6.3499999999999996
  0
CIRCLE
  5
104
100
AcDbEntity
  8
0
 62
256
370
-1
 48
1.0
  6
BYLAYER
100
AcDbCircle
 10
510.0
 20
965.0
 30
0.0
 40
6.3499999999999996
  0
CIRCLE
  5
105
100
AcDbEntity
  8
0
 62
256
370
-1
 48
1.0
  6
BYLAYER
100
AcDbCircle
 10
550.0
 20
965.0
 30
0.0
 40
6.3499999999999996
  0
LINE
  5
106
100
AcDbEntity
  8
0
 62
256
370
-1
 48
1.0
  6
BYLAYER
100
AcDbLine
 10
560.0000000000001137
 20
829.9999999999998863
 30
0.0
 11
560.0
 21
847.7639320225002848
 31
0.0
  0
LINE
  5
107
100
AcDbEntity
  8
0
 62
256
370
-1
 48
1.0
  6
BYLAYER
100
AcDbLine
 10
460.0000000000001137
 20
847.7639320225005122
 30
0.0
 11
460.0000000000001137
 21
830.0
 31
0.0
  0
LINE
  5
108
100
AcDbEntity
  8
0
 62
256
370
-1
 48
1.0
  6
BYLAYER
100
AcDbLine
 10
460.0000000000000568
 20
700.0
 30
0.0
 11
460.0
 21
682.2360679774998289
 31
0.0
  0
LINE
  5
109
100
AcDbEntity
  8
0
 62
256
370
-1
 48
1.0
  6
BYLAYER
100
AcDbLine
 10
560.0
 20
700.0
 30
0.0
 11
560.0
 21
682.2360679774997152
 31
0.0
  0
LINE
  5
10A
100
AcDbEntity
  8
0
 62
256
370
-1
 48
1.0
  6
BYLAYER
100
AcDbLine
 10
460.0
 20
870.0
 30
0.0
 11
460.0000000000000568
 21
852.2360679774994878
 31
0.0
  0
LINE
  5
10B
100
AcDbEntity
  8
0
 62
256
370
-1
 48
1.0
  6
BYLAYER
100
AcDbLine
 10
560.0
 20
870.0
 30
0.0
 11
560.0000000000001137
 21
852.2360679774997152
 31
0.0
  0
LINE
  5
10C
100
AcDbEntity
  8
0
 62
256
370
-1
 48
1.0
  6
BYLAYER
100
AcDbLine
 10
560.0
 20
677.7639320225002848
 30
0.0
 11
560.0
 21
660.0
 31
0.0
  0
LINE
  5
10D
100
AcDbEntity
  8
0
 62
256
370
-1
 48
1.0
  6
BYLAYER
100
AcDbLine
 10
460.0
 20
677.7639320225008532
 30
0.0
 11
459.9999999999998863
 21
659.9999999999998863
 31
0.0
  0
LINE
  5
10E
100
AcDbEntity
  8
0
 62
256
370
-1
 48
1.0
  6
BYLAYER
100
AcDbLine
 10
190.0
 20
680.0
 30
0.0
 11
20.0
 21
680.0
 31
0.0
  0
LINE
  5
10F
100
AcDbEntity
  8
0
 62
256
370
-1
 48
1.0
  6
BYLAYER
100
AcDbLine
 10
386.0
 20
640.0
 30
0.0
 11
216.0
 21
640.0
 31
0.0
  0
LINE
  5
110
100
AcDbEntity
  8
0
 62
256
370
-1
 48
1.0
  6
BYLAYER
100
AcDbLine
 10
190.0
 20
640.0
 30
0.0
 11
20.0
 21
640.0
 31
0.0
  0
LINE
  5
111
100
AcDbEntity
  8
0
 62
256
370
-1
 48
1.0
  6
BYLAYER
100
AcDbLine
 10
386.0
 20
680.0
 30
0.0
 11
216.0
 21
680.0
 31
0.0
  0
LINE
  5
112
100
AcDbEntity
  8
0
 62
256
370
-1
 48
1.0
  6
BYLAYER
100
AcDbLine
 10
20.0
 20
680.0
 30
0.0
 11
20.0
 21
700.0
 31
0.0
  0
LINE
  5
113
100
AcDbEntity
  8
0
 62
256
370
-1
 48
1.0
  6
BYLAYER
100
AcDbLine
 10
216.0
 20
640.0
 30
0.0
 11
216.0
 21
660.0
 31
0.0
  0
LINE
  5
114
100
AcDbEntity
  8
0
 62
256
370
-1
 48
1.0
  6
BYLAYER
100
AcDbLine
 10
20.0
 20
640.0
 30
0.0
 11
20.0
 21
660.0
 31
0.0
  0
LINE
  5
115
100
AcDbEntity
  8
0
 62
256
370
-1
 48
1.0
  6
BYLAYER
100
AcDbLine
 10
216.0
 20
680.0
 30
0.0
 11
216.0
 21
700.0
 31
0.0
  0
LINE
  5
116
100
AcDbEntity
  8
0
 62
256
370
-1
 48
1.0
  6
BYLAYER
100
AcDbLine
 10
20.0
 20
700.0
 30
0.0
 11
190.0
 21
700.0
 31
0.0
  0
LINE
  5
117
100
AcDbEntity
  8
0
 62
256
370
-1
 48
1.0
  6
BYLAYER
100
AcDbLine
 10
216.0
 20
660.0
 30
0.0
 11
386.0
 21
660.0
 31
0.0
  0
LINE
  5
118
100
AcDbEntity
  8
0
 62
256
370
-1
 48
1.0
  6
BYLAYER
100
AcDbLine
 10
20.0
 20
660.0
 30
0.0
 11
190.0
 21
660.0
 31
0.0
  0
LINE
  5
119
100
AcDbEntity
  8
0
 62
256
370
-1
 48
1.0
  6
BYLAYER
100
AcDbLine
 10
216.0
 20
700.0
 30
0.0
 11
386.0
 21
700.0
 31
0.0
  0
LINE
  5
11A
100
AcDbEntity
  8
0
 62
256
370
-1
 48
1.0
  6
BYLAYER
100
AcDbLine
 10
190.0
 20
700.0
 30
0.0
 11
190.0
 21
680.0
 31
0.0
  0
LINE
  5
11B
100
AcDbEntity
  8
0
 62
256
370
-1
 48
1.0
  6
BYLAYER
100
AcDbLine
 10
386.0
 20
660.0
 30
0.0
 11
386.0
 21
640.0
 31
0.0
  0
LINE
  5
11C
100
AcDbEntity
  8
0
 62
256
370
-1
 48
1.0
  6
BYLAYER
100
AcDbLine
 10
190.0
 20
660.0
 30
0.0
 11
190.0
 21
640.0
 31
0.0
  0
LINE
  5
11D
100
AcDbEntity
  8
0
 62
256
370
-1
 48
1.0
  6
BYLAYER
100
AcDbLine
 10
386.0
 20
700.0
 30
0.0
 11
386.0
 21
680.0
 31
0.0
  0
CIRCLE
  5
11E
100
AcDbEntity
  8
0
 62
256
370
-1
 48
1.0
  6
BYLAYER
100
AcDbCircle
 10
30.0
 20
690.0
 30
0.0
 40
5.5
  0
CIRCLE
  5
11F
100
AcDbEntity
  8
0
 62
256
370
-1
 48
1.0
  6
BYLAYER
100
AcDbCircle
 10
226.0
 20
650.0
 30
0.0
 40
5.5
  0
CIRCLE
  5
120
100
AcDbEntity
  8
0
 62
256
370
-1
 48
1.0
  6
BYLAYER
100
AcDbCircle
 10
30.0
 20
650.0
 30
0.0
 40
5.5
  0
CIRCLE
  5
121
100
AcDbEntity
  8
0
 62
256
370
-1
 48
1.0
  6
BYLAYER
100
AcDbCircle
 10
226.0
 20
690.0
 30
0.0
 40
5.5
  0
CIRCLE
  5
122
100
AcDbEntity
  8
0
 62
256
370
-1
 48
1.0
  6
BYLAYER
100
AcDbCircle
 10
180.0
 20
690.0
 30
0.0
 40
5.5
  0
CIRCLE
  5
123
100
AcDbEntity
  8
0
 62
256
370
-1
 48
1.0
  6
BYLAYER
100
AcDbCircle
 10
376.0
 20
650.0
 30
0.0
 40
5.5
  0
CIRCLE
  5
124
100
AcDbEntity
  8
0
 62
256
370
-1
 48
1.0
  6
BYLAYER
100
AcDbCircle
 10
180.0
 20
650.0
 30
0.0
 40
5.5
  0
CIRCLE
  5
125
100
AcDbEntity
  8
0
 62
256
370
-1
 48
1.0
  6
BYLAYER
100
AcDbCircle
 10
376.0
 20
690.0
 30
0.0
 40
5.5
  0
LINE
  5
126
100
AcDbEntity
  8
0
 62
256
370
-1
 48
1.0
  6
BYLAYER
100
AcDbLine
 10
580.0000000000001137
 20
876.0
 30
0.0
 11
576.0000000000014779
 21
872.0
 31
0.0
  0
LINE
  5
127
100
AcDbEntity
  8
0
 62
256
370
-1
 48
1.0
  6
BYLAYER
100
AcDbLine
 10
444.0
 20
872.0
 30
0.0
 11
440.0000000000002274
 21
876.0
 31
0.0
  0
LINE
  5
128
100
AcDbEntity
  8
0
 62
256
370
-1
 48
1.0
  6
BYLAYER
100
AcDbLine
 10
444.0
 20
828.0
 30
0.0
 11
440.0
 21
824.0
 31
0.0
  0
LINE
  5
129
100
AcDbEntity
  8
0
 62
256
370
-1
 48
1.0
  6
BYLAYER
100
AcDbLine
 10
576.0000000000001137
 20
828.0
 30
0.0
 11
580.0
 21
824.0
 31
0.0
  0
LINE
  5
12A
100
AcDbEntity
  8
0
 62
256
370
-1
 48
1.0
  6
BYLAYER
100
AcDbLine
 10
580.0
 20
706.0
 30
0.0
 11
575.9999999999997726
 21
702.0
 31
0.0
  0
LINE
  5
12B
100
AcDbEntity
  8
0
 62
256
370
-1
 48
1.0
  6
BYLAYER
100
AcDbLine
 10
440.0
 20
704.0
 30
0.0
 11
444.0
 21
700.0
 31
0.0
  0
LINE
  5
12C
100
AcDbEntity
  8
0
 62
256
370
-1
 48
1.0
  6
BYLAYER
100
AcDbLine
 10
444.0
 20
658.0
 30
0.0
 11
440.0
 21
654.0
 31
0.0
  0
LINE
  5
12D
100
AcDbEntity
  8
0
 62
256
370
-1
 48
1.0
  6
BYLAYER
100
AcDbLine
 10
576.0
 20
658.0
 30
0.0
 11
580.0
 21
654.0
 31
0.0
  0
LINE
  5
12E
100
AcDbEntity
  8
0
 62
256
370
-1
 48
1.0
  6
BYLAYER
100
AcDbLine
 10
305.0
 20
250.0
 30
0.0
 11
135.0
 21
250.0
 31
0.0
  0
LINE
  5
12F
100
AcDbEntity
  8
0
 62
256
370
-1
 48
1.0
  6
BYLAYER
100
AcDbLine
 10
131.0
 20
248.0
 30
0.0
 11
41.0
 21
248.0
 31
0.0
  0
LINE
  5
130
100
AcDbEntity
  8
0
 62
256
370
-1
 48
1.0
  6
BYLAYER
100
AcDbLine
 10
135.0
 20
249.0
 30
0.0
 11
131.0
 21
249.0
 31
0.0
  0
LINE
  5
131
100
AcDbEntity
  8
0
 62
256
370
-1
 48
1.0
  6
BYLAYER
100
AcDbLine
 10
305.0
 20
249.0
 30
0.0
 11
309.0
 21
249.0
 31
0.0
  0
LINE
  5
132
100
AcDbEntity
  8
0
 62
256
370
-1
 48
1.0
  6
BYLAYER
100
AcDbLine
 10
309.0
 20
248.0
 30
0.0
 11
399.0
 21
248.0
 31
0.0
  0
LINE
  5
133
100
AcDbEntity
  8
0
 62
256
370
-1
 48
1.0
  6
BYLAYER
100
AcDbLine
 10
56.0
 20
246.0
 30
0.0
 11
116.0
 21
246.0
 31
0.0
  0
LINE
  5
134
100
AcDbEntity
  8
0
 62
256
370
-1
 48
1.0
  6
BYLAYER
100
AcDbLine
 10
324.0
 20
246.0
 30
0.0
 11
384.0
 21
246.0
 31
0.0
  0
LINE
  5
135
100
AcDbEntity
  8
0
 62
256
370
-1
 48
1.0
  6
BYLAYER
100
AcDbLine
 10
475.0
 20
385.0
 30
0.0
 11
475.0
 21
325.0
 31
0.0
  0
LINE
  5
136
100
AcDbEntity
  8
0
 62
256
370
-1
 48
1.0
  6
BYLAYER
100
AcDbLine
 10
475.0
 20
565.0
 30
0.0
 11
475.0
 21
415.0
 31
0.0
  0
LINE
  5
137
100
AcDbEntity
  8
0
 62
256
370
-1
 48
1.0
  6
BYLAYER
100
AcDbLine
 10
475.0
 20
95.0
 30
0.0
 11
475.0
 21
35.0
 31
0.0
  0
LINE
  5
138
100
AcDbEntity
  8
0
 62
256
370
-1
 48
1.0
  6
BYLAYER
100
AcDbLine
 10
475.0
 20
275.0
 30
0.0
 11
475.0
 21
124.0
 31
0.0
  0
LINE
  5
139
100
AcDbEntity
  8
0
 62
256
370
-1
 48
1.0
  6
BYLAYER
100
AcDbLine
 10
485.0
 20
385.0
 30
0.0
 11
485.0
 21
325.0
 31
0.0
  0
LINE
  5
13A
100
AcDbEntity
  8
0
 62
256
370
-1
 48
1.0
  6
BYLAYER
100
AcDbLine
 10
485.0
 20
565.0
 30
0.0
 11
485.0
 21
415.0
 31
0.0
  0
LINE
  5
13B
100
AcDbEntity
  8
0
 62
256
370
-1
 48
1.0
  6
BYLAYER
100
AcDbLine
 10
485.0
 20
95.0
 30
0.0
 11
485.0
 21
35.0
 31
0.0
  0
LINE
  5
13C
100
AcDbEntity
  8
0
 62
256
370
-1
 48
1.0
  6
BYLAYER
100
AcDbLine
 10
485.0
 20
275.0
 30
0.0
 11
485.0
 21
124.0
 31
0.0
  0
LINE
  5
13D
100
AcDbEntity
  8
0
 62
256
370
-1
 48
1.0
  6
BYLAYER
100
AcDbLine
 10
535.0
 20
385.0
 30
0.0
 11
535.0
 21
325.0
 31
0.0
  0
LINE
  5
13E
100
AcDbEntity
  8
0
 62
256
370
-1
 48
1.0
  6
BYLAYER
100
AcDbLine
 10
535.0
 20
565.0
 30
0.0
 11
535.0
 21
415.0
 31
0.0
  0
LINE
  5
13F
100
AcDbEntity
  8
0
 62
256
370
-1
 48
1.0
  6
BYLAYER
100
AcDbLine
 10
535.0
 20
95.0
 30
0.0
 11
535.0
 21
35.0
 31
0.0
  0
LINE
  5
140
100
AcDbEntity
  8
0
 62
256
370
-1
 48
1.0
  6
BYLAYER
100
AcDbLine
 10
535.0
 20
275.0
 30
0.0
 11
535.0
 21
125.0
 31
0.0
  0
LINE
  5
141
100
AcDbEntity
  8
0
 62
256
370
-1
 48
1.0
  6
BYLAYER
100
AcDbLine
 10
545.0
 20
385.0
 30
0.0
 11
545.0
 21
325.0
 31
0.0
  0
LINE
  5
142
100
AcDbEntity
  8
0
 62
256
370
-1
 48
1.0
  6
BYLAYER
100
AcDbLine
 10
545.0
 20
565.0
 30
0.0
 11
545.0
 21
415.0
 31
0.0
  0
LINE
  5
143
100
AcDbEntity
  8
0
 62
256
370
-1
 48
1.0
  6
BYLAYER
100
AcDbLine
 10
545.0
 20
95.0
 30
0.0
 11
545.0
 21
35.0
 31
0.0
  0
LINE
  5
144
100
AcDbEntity
  8
0
 62
256
370
-1
 48
1.0
  6
BYLAYER
100
AcDbLine
 10
545.0
 20
275.0
 30
0.0
 11
545.0
 21
125.0
 31
0.0
  0
CIRCLE
  5
145
100
AcDbEntity
  8
0
 62
256
370
-1
 48
1.0
  6
BYLAYER
100
AcDbCircle
 10
480.0000000000001137
 20
870.0
 30
0.0
 40
6.3499999999999996
  0
CIRCLE
  5
146
100
AcDbEntity
  8
0
 62
256
370
-1
 48
1.0
  6
BYLAYER
100
AcDbCircle
 10
540.0
 20
870.0
 30
0.0
 40
6.3499999999999996
  0
CIRCLE
  5
147
100
AcDbEntity
  8
0
 62
256
370
-1
 48
1.0
  6
BYLAYER
100
AcDbCircle
 10
480.0000000000000568
 20
890.0
 30
0.0
 40
6.3499999999999996
  0
CIRCLE
  5
148
100
AcDbEntity
  8
0
 62
256
370
-1
 48
1.0
  6
BYLAYER
100
AcDbCircle
 10
540.0000000000002274
 20
890.0
 30
0.0
 40
6.3499999999999996
  0
CIRCLE
  5
149
100
AcDbEntity
  8
0
 62
256
370
-1
 48
1.0
  6
BYLAYER
100
AcDbCircle
 10
480.0
 20
910.0
 30
0.0
 40
6.3499999999999996
  0
CIRCLE
  5
14A
100
AcDbEntity
  8
0
 62
256
370
-1
 48
1.0
  6
BYLAYER
100
AcDbCircle
 10
540.0000000000002274
 20
910.0
 30
0.0
 40
6.3499999999999996
  0
CIRCLE
  5
14B
100
AcDbEntity
  8
0
 62
256
370
-1
 48
1.0
  6
BYLAYER
100
AcDbCircle
 10
480.0000000000004547
 20
620.0000000000003411
 30
0.0
 40
6.3499999999999996
  0
CIRCLE
  5
14C
100
AcDbEntity
  8
0
 62
256
370
-1
 48
1.0
  6
BYLAYER
100
AcDbCircle
 10
540.0000000000004547
 20
620.0000000000003411
 30
0.0
 40
6.3499999999999996
  0
CIRCLE
  5
14D
100
AcDbEntity
  8
0
 62
256
370
-1
 48
1.0
  6
BYLAYER
100
AcDbCircle
 10
480.0000000000004547
 20
640.0000000000003411
 30
0.0
 40
6.3499999999999996
  0
CIRCLE
  5
14E
100
AcDbEntity
  8
0
 62
256
370
-1
 48
1.0
  6
BYLAYER
100
AcDbCircle
 10
540.0000000000004547
 20
640.0000000000002274
 30
0.0
 40
6.3499999999999996
  0
CIRCLE
  5
14F
100
AcDbEntity
  8
0
 62
256
370
-1
 48
1.0
  6
BYLAYER
100
AcDbCircle
 10
480.0000000000004547
 20
660.0000000000003411
 30
0.0
 40
6.3499999999999996
  0
CIRCLE
  5
150
100
AcDbEntity
  8
0
 62
256
370
-1
 48
1.0
  6
BYLAYER
100
AcDbCircle
 10
540.0000000000004547
 20
660.0000000000002274
 30
0.0
 40
6.3499999999999996
  0
CIRCLE
  5
151
100
AcDbEntity
  8
0
 62
256
370
-1
 48
1.0
  6
BYLAYER
100
AcDbCircle
 10
290.0
 20
965.0
 30
0.0
 40
2.0
  0
CIRCLE
  5
152
100
AcDbEntity
  8
0
 62
256
370
-1
 48
1.0
  6
BYLAYER
100
AcDbCircle
 10
250.0
 20
965.0
 30
0.0
 40
2.0
  0
CIRCLE
  5
153
100
AcDbEntity
  8
0
 62
256
370
-1
 48
1.0
  6
BYLAYER
100
AcDbCircle
 10
210.0
 20
965.0
 30
0.0
 40
2.0
  0
CIRCLE
  5
154
100
AcDbEntity
  8
0
 62
256
370
-1
 48
1.0
  6
BYLAYER
100
AcDbCircle
 10
170.0
 20
965.0
 30
0.0
 40
2.0
  0
CIRCLE
  5
155
100
AcDbEntity
  8
0
 62
256
370
-1
 48
1.0
  6
BYLAYER
100
AcDbCircle
 10
130.0
 20
965.0
 30
0.0
 40
2.0
  0
CIRCLE
  5
156
100
AcDbEntity
  8
0
 62
256
370
-1
 48
1.0
  6
BYLAYER
100
AcDbCircle
 10
90.0
 20
965.0
 30
0.0
 40
2.0
  0
CIRCLE
  5
157
100
AcDbEntity
  8
0
 62
256
370
-1
 48
1.0
  6
BYLAYER
100
AcDbCircle
 10
50.0
 20
965.0
 30
0.0
 40
2.0
  0
CIRCLE
  5
158
100
AcDbEntity
  8
0
 62
256
370
-1
 48
1.0
  6
BYLAYER
100
AcDbCircle
 10
570.0
 20
965.0
 30
0.0
 40
2.0
  0
CIRCLE
  5
159
100
AcDbEntity
  8
0
 62
256
370
-1
 48
1.0
  6
BYLAYER
100
AcDbCircle
 10
530.0
 20
965.0
 30
0.0
 40
2.0
  0
CIRCLE
  5
15A
100
AcDbEntity
  8
0
 62
256
370
-1
 48
1.0
  6
BYLAYER
100
AcDbCircle
 10
490.0
 20
965.0
 30
0.0
 40
2.0
  0
CIRCLE
  5
15B
100
AcDbEntity
  8
0
 62
256
370
-1
 48
1.0
  6
BYLAYER
100
AcDbCircle
 10
450.0
 20
965.0
 30
0.0
 40
2.0
  0
CIRCLE
  5
15C
100
AcDbEntity
  8
0
 62
256
370
-1
 48
1.0
  6
BYLAYER
100
AcDbCircle
 10
410.0
 20
965.0
 30
0.0
 40
2.0
  0
CIRCLE
  5
15D
100
AcDbEntity
  8
0
 62
256
370
-1
 48
1.0
  6
BYLAYER
100
AcDbCircle
 10
370.0
 20
965.0
 30
0.0
 40
2.0
  0
CIRCLE
  5
15E
100
AcDbEntity
  8
0
 62
256
370
-1
 48
1.0
  6
BYLAYER
100
AcDbCircle
 10
330.0
 20
965.0
 30
0.0
 40
2.0
  0
LINE
  5
15F
100
AcDbEntity
  8
0
 62
256
370
-1
 48
1.0
  6
BYLAYER
100
AcDbLine
 10
580.0
 20
955.0
 30
0.0
 11
20.0
 21
955.0
 31
0.0
  0
LINE
  5
160
100
AcDbEntity
  8
0
 62
256
370
-1
 48
1.0
  6
BYLAYER
100
AcDbLine
 10
20.0
 20
955.0
 30
0.0
 11
20.0
 21
975.0
 31
0.0
  0
LINE
  5
161
100
AcDbEntity
  8
0
 62
256
370
-1
 48
1.0
  6
BYLAYER
100
AcDbLine
 10
20.0
 20
975.0
 30
0.0
 11
580.0
 21
975.0
 31
0.0
  0
LINE
  5
162
100
AcDbEntity
  8
0
 62
256
370
-1
 48
1.0
  6
BYLAYER
100
AcDbLine
 10
580.0
 20
975.0
 30
0.0
 11
580.0
 21
955.0
 31
0.0
  0
LINE
  5
163
100
AcDbEntity
  8
0
 62
256
370
-1
 48
1.0
  6
BYLAYER
100
AcDbLine
 10
385.9999999999998863
 20
896.0000000000002274
 30
0.0
 11
385.9999999999998863
 21
873.0000000000002274
 31
0.0
  0
LINE
  5
164
100
AcDbEntity
  8
0
 62
256
370
-1
 48
1.0
  6
BYLAYER
100
AcDbLine
 10
330.299999999999784
 20
895.0000000000001137
 30
0.0
 11
330.299999999999784
 21
872.0
 31
0.0
  0
LINE
  5
165
100
AcDbEntity
  8
0
 62
256
370
-1
 48
1.0
  6
BYLAYER
100
AcDbLine
 10
268.2999999999998977
 20
895.0000000000002274
 30
0.0
 11
268.2999999999998977
 21
872.0
 31
0.0
  0
LINE
  5
166
100
AcDbEntity
  8
0
 62
256
370
-1
 48
1.0
  6
BYLAYER
100
AcDbLine
 10
206.2999999999998693
 20
895.0000000000002274
 30
0.0
 11
206.2999999999998693
 21
871.9999999999998863
 31
0.0
  0
LINE
  5
167
100
AcDbEntity
  8
0
 62
256
370
-1
 48
1.0
  6
BYLAYER
100
AcDbLine
 10
144.2999999999998977
 20
895.0000000000001137
 30
0.0
 11
144.2999999999998977
 21
871.9999999999997726
 31
0.0
  0
LINE
  5
168
100
AcDbEntity
  8
0
 62
256
370
-1
 48
1.0
  6
BYLAYER
100
AcDbLine
 10
82.2999999999998835
 20
895.0
 30
0.0
 11
82.2999999999998835
 21
871.9999999999994316
 31
0.0
  0
LINE
  5
169
100
AcDbEntity
  8
0
 62
256
370
-1
 48
1.0
  6
BYLAYER
100
AcDbLine
 10
20.2999999999998977
 20
895.0000000000001137
 30
0.0
 11
20.2999999999998977
 21
871.9999999999996589
 31
0.0
  0
LINE
  5
16A
100
AcDbEntity
  8
0
 62
256
370
-1
 48
1.0
  6
BYLAYER
100
AcDbLine
 10
385.6999999999999886
 20
936.0000000000001137
 30
0.0
 11
385.6999999999999886
 21
913.0000000000001137
 31
0.0
  0
LINE
  5
16B
100
AcDbEntity
  8
0
 62
256
370
-1
 48
1.0
  6
BYLAYER
100
AcDbLine
 10
329.9999999999999432
 20
935.0
 30
0.0
 11
329.9999999999999432
 21
911.9999999999998863
 31
0.0
  0
LINE
  5
16C
100
AcDbEntity
  8
0
 62
256
370
-1
 48
1.0
  6
BYLAYER
100
AcDbLine
 10
268.0000000000000568
 20
935.0000000000001137
 30
0.0
 11
268.0000000000000568
 21
911.9999999999998863
 31
0.0
  0
LINE
  5
16D
100
AcDbEntity
  8
0
 62
256
370
-1
 48
1.0
  6
BYLAYER
100
AcDbLine
 10
205.9999999999999716
 20
935.0000000000001137
 30
0.0
 11
205.9999999999999716
 21
911.9999999999997726
 31
0.0
  0
LINE
  5
16E
100
AcDbEntity
  8
0
 62
256
370
-1
 48
1.0
  6
BYLAYER
100
AcDbLine
 10
144.0
 20
935.0
 30
0.0
 11
144.0
 21
911.9999999999996589
 31
0.0
  0
LINE
  5
16F
100
AcDbEntity
  8
0
 62
256
370
-1
 48
1.0
  6
BYLAYER
100
AcDbLine
 10
81.9999999999999858
 20
934.9999999999998863
 30
0.0
 11
81.9999999999999858
 21
911.9999999999993179
 31
0.0
  0
LINE
  5
170
100
AcDbEntity
  8
0
 62
256
370
-1
 48
1.0
  6
BYLAYER
100
AcDbLine
 10
20.0
 20
935.0
 30
0.0
 11
20.0
 21
911.9999999999995453
 31
0.0
  0
LINE
  5
171
100
AcDbEntity
  8
0
 62
256
370
-1
 48
1.0
  6
BYLAYER
100
AcDbLine
 10
385.9999999999998863
 20
816.0000000000003411
 30
0.0
 11
385.9999999999998863
 21
793.0000000000003411
 31
0.0
  0
LINE
  5
172
100
AcDbEntity
  8
0
 62
256
370
-1
 48
1.0
  6
BYLAYER
100
AcDbLine
 10
385.6999999999999886
 20
856.0000000000002274
 30
0.0
 11
385.6999999999999886
 21
833.0000000000002274
 31
0.0
  0
LINE
  5
173
100
AcDbEntity
  8
0
 62
256
370
-1
 48
1.0
  6
BYLAYER
100
AcDbLine
 10
385.6999999999999886
 20
776.0000000000001137
 30
0.0
 11
385.6999999999999886
 21
753.0000000000001137
 31
0.0
  0
LINE
  5
174
100
AcDbEntity
  8
0
 62
256
370
-1
 48
1.0
  6
BYLAYER
100
AcDbLine
 10
416.2999999999998408
 20
873.0000000000002274
 30
0.0
 11
416.2999999999998408
 21
896.0000000000002274
 31
0.0
  0
LINE
  5
175
100
AcDbEntity
  8
0
 62
256
370
-1
 48
1.0
  6
BYLAYER
100
AcDbLine
 10
360.5999999999997385
 20
872.0
 30
0.0
 11
360.5999999999997385
 21
895.0000000000001137
 31
0.0
  0
LINE
  5
176
100
AcDbEntity
  8
0
 62
256
370
-1
 48
1.0
  6
BYLAYER
100
AcDbLine
 10
298.5999999999998522
 20
872.0
 30
0.0
 11
298.5999999999998522
 21
895.0000000000002274
 31
0.0
  0
LINE
  5
177
100
AcDbEntity
  8
0
 62
256
370
-1
 48
1.0
  6
BYLAYER
100
AcDbLine
 10
236.5999999999998238
 20
871.9999999999997726
 30
0.0
 11
236.5999999999998238
 21
895.0000000000002274
 31
0.0
  0
LINE
  5
178
100
AcDbEntity
  8
0
 62
256
370
-1
 48
1.0
  6
BYLAYER
100
AcDbLine
 10
174.5999999999998522
 20
871.9999999999995453
 30
0.0
 11
174.5999999999998522
 21
895.0000000000001137
 31
0.0
  0
LINE
  5
179
100
AcDbEntity
  8
0
 62
256
370
-1
 48
1.0
  6
BYLAYER
100
AcDbLine
 10
112.599999999999838
 20
871.9999999999995453
 30
0.0
 11
112.599999999999838
 21
895.0
 31
0.0
  0
LINE
  5
17A
100
AcDbEntity
  8
0
 62
256
370
-1
 48
1.0
  6
BYLAYER
100
AcDbLine
 10
50.5999999999998522
 20
871.9999999999992042
 30
0.0
 11
50.5999999999998522
 21
895.0000000000001137
 31
0.0
  0
LINE
  5
17B
100
AcDbEntity
  8
0
 62
256
370
-1
 48
1.0
  6
BYLAYER
100
AcDbLine
 10
415.9999999999999432
 20
913.0000000000001137
 30
0.0
 11
415.9999999999999432
 21
936.0000000000001137
 31
0.0
  0
LINE
  5
17C
100
AcDbEntity
  8
0
 62
256
370
-1
 48
1.0
  6
BYLAYER
100
AcDbLine
 10
360.2999999999998977
 20
911.9999999999998863
 30
0.0
 11
360.2999999999998977
 21
935.0
 31
0.0
  0
LINE
  5
17D
100
AcDbEntity
  8
0
 62
256
370
-1
 48
1.0
  6
BYLAYER
100
AcDbLine
 10
298.3000000000000114
 20
911.9999999999998863
 30
0.0
 11
298.3000000000000114
 21
935.0000000000001137
 31
0.0
  0
LINE
  5
17E
100
AcDbEntity
  8
0
 62
256
370
-1
 48
1.0
  6
BYLAYER
100
AcDbLine
 10
236.2999999999999261
 20
911.9999999999996589
 30
0.0
 11
236.2999999999999261
 21
935.0000000000001137
 31
0.0
  0
LINE
  5
17F
100
AcDbEntity
  8
0
 62
256
370
-1
 48
1.0
  6
BYLAYER
100
AcDbLine
 10
174.2999999999999545
 20
911.9999999999994316
 30
0.0
 11
174.2999999999999545
 21
935.0
 31
0.0
  0
LINE
  5
180
100
AcDbEntity
  8
0
 62
256
370
-1
 48
1.0
  6
BYLAYER
100
AcDbLine
 10
112.2999999999999403
 20
911.9999999999994316
 30
0.0
 11
112.2999999999999403
 21
934.9999999999998863
 31
0.0
  0
LINE
  5
181
100
AcDbEntity
  8
0
 62
256
370
-1
 48
1.0
  6
BYLAYER
100
AcDbLine
 10
50.2999999999999545
 20
911.9999999999990905
 30
0.0
 11
50.2999999999999545
 21
935.0
 31
0.0
  0
LINE
  5
182
100
AcDbEntity
  8
0
 62
256
370
-1
 48
1.0
  6
BYLAYER
100
AcDbLine
 10
416.2999999999998408
 20
793.0000000000003411
 30
0.0
 11
416.2999999999998408
 21
816.0000000000003411
 31
0.0
  0
LINE
  5
183
100
AcDbEntity
  8
0
 62
256
370
-1
 48
1.0
  6
BYLAYER
100
AcDbLine
 10
415.9999999999999432
 20
833.0000000000002274
 30
0.0
 11
415.9999999999999432
 21
856.0000000000002274
 31
0.0
  0
LINE
  5
184
100
AcDbEntity
  8
0
 62
256
370
-1
 48
1.0
  6
BYLAYER
100
AcDbLine
 10
415.9999999999999432
 20
753.0000000000001137
 30
0.0
 11
415.9999999999999432
 21
776.0000000000001137
 31
0.0
  0
LINE
  5
185
100
AcDbEntity
  8
0
 62
256
370
-1
 48
1.0
  6
BYLAYER
100
AcDbLine
 10
416.2999999999998408
 20
896.0000000000002274
 30
0.0
 11
385.9999999999998863
 21
896.0000000000002274
 31
0.0
  0
LINE
  5
186
100
AcDbEntity
  8
0
 62
256
370
-1
 48
1.0
  6
BYLAYER
100
AcDbLine
 10
360.5999999999997385
 20
895.0000000000001137
 30
0.0
 11
330.299999999999784
 21
895.0000000000001137
 31
0.0
  0
LINE
  5
187
100
AcDbEntity
  8
0
 62
256
370
-1
 48
1.0
  6
BYLAYER
100
AcDbLine
 10
298.5999999999998522
 20
895.0000000000002274
 30
0.0
 11
268.2999999999998977
 21
895.0000000000002274
 31
0.0
  0
LINE
  5
188
100
AcDbEntity
  8
0
 62
256
370
-1
 48
1.0
  6
BYLAYER
100
AcDbLine
 10
236.5999999999998238
 20
895.0000000000002274
 30
0.0
 11
206.2999999999998693
 21
895.0000000000002274
 31
0.0
  0
LINE
  5
189
100
AcDbEntity
  8
0
 62
256
370
-1
 48
1.0
  6
BYLAYER
100
AcDbLine
 10
174.5999999999998522
 20
895.0000000000001137
 30
0.0
 11
144.2999999999998977
 21
895.0000000000001137
 31
0.0
  0
LINE
  5
18A
100
AcDbEntity
  8
0
 62
256
370
-1
 48
1.0
  6
BYLAYER
100
AcDbLine
 10
112.599999999999838
 20
895.0
 30
0.0
 11
82.2999999999998835
 21
895.0
 31
0.0
  0
LINE
  5
18B
100
AcDbEntity
  8
0
 62
256
370
-1
 48
1.0
  6
BYLAYER
100
AcDbLine
 10
50.5999999999998522
 20
895.0000000000001137
 30
0.0
 11
20.2999999999998977
 21
895.0000000000001137
 31
0.0
  0
LINE
  5
18C
100
AcDbEntity
  8
0
 62
256
370
-1
 48
1.0
  6
BYLAYER
100
AcDbLine
 10
415.9999999999999432
 20
936.0000000000001137
 30
0.0
 11
385.6999999999999886
 21
936.0000000000001137
 31
0.0
  0
LINE
  5
18D
100
AcDbEntity
  8
0
 62
256
370
-1
 48
1.0
  6
BYLAYER
100
AcDbLine
 10
360.2999999999998977
 20
935.0
 30
0.0
 11
329.9999999999999432
 21
935.0
 31
0.0
  0
LINE
  5
18E
100
AcDbEntity
  8
0
 62
256
370
-1
 48
1.0
  6
BYLAYER
100
AcDbLine
 10
298.3000000000000114
 20
935.0000000000001137
 30
0.0
 11
268.0000000000000568
 21
935.0000000000001137
 31
0.0
  0
LINE
  5
18F
100
AcDbEntity
  8
0
 62
256
370
-1
 48
1.0
  6
BYLAYER
100
AcDbLine
 10
236.2999999999999261
 20
935.0000000000001137
 30
0.0
 11
205.9999999999999716
 21
935.0000000000001137
 31
0.0
  0
LINE
  5
190
100
AcDbEntity
  8
0
 62
256
370
-1
 48
1.0
  6
BYLAYER
100
AcDbLine
 10
174.2999999999999545
 20
935.0
 30
0.0
 11
144.0
 21
935.0
 31
0.0
  0
LINE
  5
191
100
AcDbEntity
  8
0
 62
256
370
-1
 48
1.0
  6
BYLAYER
100
AcDbLine
 10
112.2999999999999403
 20
934.9999999999998863
 30
0.0
 11
81.9999999999999858
 21
934.9999999999998863
 31
0.0
  0
LINE
  5
192
100
AcDbEntity
  8
0
 62
256
370
-1
 48
1.0
  6
BYLAYER
100
AcDbLine
 10
50.2999999999999545
 20
935.0
 30
0.0
 11
20.0
 21
935.0
 31
0.0
  0
LINE
  5
193
100
AcDbEntity
  8
0
 62
256
370
-1
 48
1.0
  6
BYLAYER
100
AcDbLine
 10
416.2999999999998408
 20
816.0000000000003411
 30
0.0
 11
385.9999999999998863
 21
816.0000000000003411
 31
0.0
  0
LINE
  5
194
100
AcDbEntity
  8
0
 62
256
370
-1
 48
1.0
  6
BYLAYER
100
AcDbLine
 10
415.9999999999999432
 20
856.0000000000002274
 30
0.0
 11
385.6999999999999886
 21
856.0000000000002274
 31
0.0
  0
LINE
  5
195
100
AcDbEntity
  8
0
 62
256
370
-1
 48
1.0
  6
BYLAYER
100
AcDbLine
 10
415.9999999999999432
 20
776.0000000000001137
 30
0.0
 11
385.6999999999999886
 21
776.0000000000001137
 31
0.0
  0
LINE
  5
196
100
AcDbEntity
  8
0
 62
256
370
-1
 48
1.0
  6
BYLAYER
100
AcDbLine
 10
416.2999999999998408
 20
873.0000000000002274
 30
0.0
 11
401.1500000000002046
 21
888.1500000000000909
 31
0.0
  0
LINE
  5
197
100
AcDbEntity
  8
0
 62
256
370
-1
 48
1.0
  6
BYLAYER
100
AcDbLine
 10
360.5999999999997385
 20
872.0
 30
0.0
 11
345.4500000000001023
 21
887.1499999999999773
 31
0.0
  0
LINE
  5
198
100
AcDbEntity
  8
0
 62
256
370
-1
 48
1.0
  6
BYLAYER
100
AcDbLine
 10
298.5999999999998522
 20
872.0
 30
0.0
 11
283.450000000000216
 21
887.1499999999999773
 31
0.0
  0
LINE
  5
199
100
AcDbEntity
  8
0
 62
256
370
-1
 48
1.0
  6
BYLAYER
100
AcDbLine
 10
236.5999999999998238
 20
871.9999999999997726
 30
0.0
 11
221.4500000000001876
 21
887.1499999999997499
 31
0.0
  0
LINE
  5
19A
100
AcDbEntity
  8
0
 62
256
370
-1
 48
1.0
  6
BYLAYER
100
AcDbLine
 10
174.5999999999998522
 20
871.9999999999995453
 30
0.0
 11
159.450000000000216
 21
887.1499999999987267
 31
0.0
  0
LINE
  5
19B
100
AcDbEntity
  8
0
 62
256
370
-1
 48
1.0
  6
BYLAYER
100
AcDbLine
 10
112.599999999999838
 20
871.9999999999995453
 30
0.0
 11
97.4500000000002018
 21
887.1499999999996362
 31
0.0
  0
LINE
  5
19C
100
AcDbEntity
  8
0
 62
256
370
-1
 48
1.0
  6
BYLAYER
100
AcDbLine
 10
50.5999999999998522
 20
871.9999999999992042
 30
0.0
 11
35.450000000000216
 21
887.1499999999995225
 31
0.0
  0
LINE
  5
19D
100
AcDbEntity
  8
0
 62
256
370
-1
 48
1.0
  6
BYLAYER
100
AcDbLine
 10
415.9999999999999432
 20
913.0000000000001137
 30
0.0
 11
400.850000000000307
 21
928.1499999999999773
 31
0.0
  0
LINE
  5
19E
100
AcDbEntity
  8
0
 62
256
370
-1
 48
1.0
  6
BYLAYER
100
AcDbLine
 10
360.2999999999998977
 20
911.9999999999998863
 30
0.0
 11
345.1500000000002615
 21
927.1499999999998636
 31
0.0
  0
LINE
  5
19F
100
AcDbEntity
  8
0
 62
256
370
-1
 48
1.0
  6
BYLAYER
100
AcDbLine
 10
298.3000000000000114
 20
911.9999999999998863
 30
0.0
 11
283.1500000000003752
 21
927.1499999999998636
 31
0.0
  0
LINE
  5
1A0
100
AcDbEntity
  8
0
 62
256
370
-1
 48
1.0
  6
BYLAYER
100
AcDbLine
 10
236.2999999999999261
 20
911.9999999999996589
 30
0.0
 11
221.1500000000002899
 21
927.1499999999996362
 31
0.0
  0
LINE
  5
1A1
100
AcDbEntity
  8
0
 62
256
370
-1
 48
1.0
  6
BYLAYER
100
AcDbLine
 10
174.2999999999999545
 20
911.9999999999994316
 30
0.0
 11
159.1500000000003183
 21
927.149999999998613
 31
0.0
  0
LINE
  5
1A2
100
AcDbEntity
  8
0
 62
256
370
-1
 48
1.0
  6
BYLAYER
100
AcDbLine
 10
112.2999999999999403
 20
911.9999999999994316
 30
0.0
 11
97.1500000000003041
 21
927.1499999999995225
 31
0.0
  0
LINE
  5
1A3
100
AcDbEntity
  8
0
 62
256
370
-1
 48
1.0
  6
BYLAYER
100
AcDbLine
 10
50.2999999999999545
 20
911.9999999999990905
 30
0.0
 11
35.1500000000003183
 21
927.1499999999994088
 31
0.0
  0
LINE
  5
1A4
100
AcDbEntity
  8
0
 62
256
370
-1
 48
1.0
  6
BYLAYER
100
AcDbLine
 10
416.2999999999998408
 20
793.0000000000003411
 30
0.0
 11
401.1500000000002046
 21
808.1500000000002046
 31
0.0
  0
LINE
  5
1A5
100
AcDbEntity
  8
0
 62
256
370
-1
 48
1.0
  6
BYLAYER
100
AcDbLine
 10
415.9999999999999432
 20
833.0000000000002274
 30
0.0
 11
400.850000000000307
 21
848.1500000000000909
 31
0.0
  0
LINE
  5
1A6
100
AcDbEntity
  8
0
 62
256
370
-1
 48
1.0
  6
BYLAYER
100
AcDbLine
 10
415.9999999999999432
 20
753.0000000000001137
 30
0.0
 11
400.850000000000307
 21
768.1499999999999773
 31
0.0
  0
LINE
  5
1A7
100
AcDbEntity
  8
0
 62
256
370
-1
 48
1.0
  6
BYLAYER
100
AcDbLine
 10
385.9999999999998863
 20
873.0000000000002274
 30
0.0
 11
401.1500000000000909
 21
888.1500000000002046
 31
0.0
  0
LINE
  5
1A8
100
AcDbEntity
  8
0
 62
256
370
-1
 48
1.0
  6
BYLAYER
100
AcDbLine
 10
330.299999999999784
 20
872.0
 30
0.0
 11
345.4499999999999886
 21
887.1500000000000909
 31
0.0
  0
LINE
  5
1A9
100
AcDbEntity
  8
0
 62
256
370
-1
 48
1.0
  6
BYLAYER
100
AcDbLine
 10
268.2999999999998977
 20
872.0
 30
0.0
 11
283.4500000000001023
 21
887.1499999999999773
 31
0.0
  0
LINE
  5
1AA
100
AcDbEntity
  8
0
 62
256
370
-1
 48
1.0
  6
BYLAYER
100
AcDbLine
 10
206.2999999999998693
 20
871.9999999999998863
 30
0.0
 11
221.4500000000000739
 21
887.1499999999997499
 31
0.0
  0
LINE
  5
1AB
100
AcDbEntity
  8
0
 62
256
370
-1
 48
1.0
  6
BYLAYER
100
AcDbLine
 10
144.2999999999998977
 20
871.9999999999997726
 30
0.0
 11
159.4500000000001023
 21
887.1499999999995225
 31
0.0
  0
LINE
  5
1AC
100
AcDbEntity
  8
0
 62
256
370
-1
 48
1.0
  6
BYLAYER
100
AcDbLine
 10
82.2999999999998835
 20
871.9999999999994316
 30
0.0
 11
97.4500000000000881
 21
887.1499999999996362
 31
0.0
  0
LINE
  5
1AD
100
AcDbEntity
  8
0
 62
256
370
-1
 48
1.0
  6
BYLAYER
100
AcDbLine
 10
20.2999999999998977
 20
871.9999999999996589
 30
0.0
 11
35.4500000000001023
 21
887.1499999999995225
 31
0.0
  0
LINE
  5
1AE
100
AcDbEntity
  8
0
 62
256
370
-1
 48
1.0
  6
BYLAYER
100
AcDbLine
 10
385.6999999999999886
 20
913.0000000000001137
 30
0.0
 11
400.8500000000001933
 21
928.1500000000000909
 31
0.0
  0
LINE
  5
1AF
100
AcDbEntity
  8
0
 62
256
370
-1
 48
1.0
  6
BYLAYER
100
AcDbLine
 10
329.9999999999999432
 20
911.9999999999998863
 30
0.0
 11
345.1500000000001478
 21
927.1499999999999773
 31
0.0
  0
LINE
  5
1B0
100
AcDbEntity
  8
0
 62
256
370
-1
 48
1.0
  6
BYLAYER
100
AcDbLine
 10
268.0000000000000568
 20
911.9999999999998863
 30
0.0
 11
283.1500000000002615
 21
927.1499999999998636
 31
0.0
  0
LINE
  5
1B1
100
AcDbEntity
  8
0
 62
256
370
-1
 48
1.0
  6
BYLAYER
100
AcDbLine
 10
205.9999999999999716
 20
911.9999999999997726
 30
0.0
 11
221.1500000000001762
 21
927.1499999999996362
 31
0.0
  0
LINE
  5
1B2
100
AcDbEntity
  8
0
 62
256
370
-1
 48
1.0
  6
BYLAYER
100
AcDbLine
 10
144.0
 20
911.9999999999996589
 30
0.0
 11
159.1500000000002046
 21
927.1499999999994088
 31
0.0
  0
LINE
  5
1B3
100
AcDbEntity
  8
0
 62
256
370
-1
 48
1.0
  6
BYLAYER
100
AcDbLine
 10
81.9999999999999858
 20
911.9999999999993179
 30
0.0
 11
97.1500000000001904
 21
927.1499999999995225
 31
0.0
  0
LINE
  5
1B4
100
AcDbEntity
  8
0
 62
256
370
-1
 48
1.0
  6
BYLAYER
100
AcDbLine
 10
20.0
 20
911.9999999999995453
 30
0.0
 11
35.1500000000002046
 21
927.1499999999994088
 31
0.0
  0
LINE
  5
1B5
100
AcDbEntity
  8
0
 62
256
370
-1
 48
1.0
  6
BYLAYER
100
AcDbLine
 10
385.9999999999998863
 20
793.0000000000003411
 30
0.0
 11
401.1500000000000909
 21
808.1500000000003183
 31
0.0
  0
LINE
  5
1B6
100
AcDbEntity
  8
0
 62
256
370
-1
 48
1.0
  6
BYLAYER
100
AcDbLine
 10
385.6999999999999886
 20
833.0000000000002274
 30
0.0
 11
400.8500000000001933
 21
848.1500000000002046
 31
0.0
  0
LINE
  5
1B7
100
AcDbEntity
  8
0
 62
256
370
-1
 48
1.0
  6
BYLAYER
100
AcDbLine
 10
385.6999999999999886
 20
753.0000000000001137
 30
0.0
 11
400.8500000000001933
 21
768.1500000000000909
 31
0.0
  0
LINE
  5
1B8
100
AcDbEntity
  8
0
 62
256
370
-1
 48
1.0
  6
BYLAYER
100
AcDbLine
 10
44.6431457505075286
 20
917.6568542494914027
 30
0.0
 11
50.3000000000000682
 21
911.9999999999988631
 31
0.0
  0
LINE
  5
1B9
100
AcDbEntity
  8
0
 62
256
370
-1
 48
1.0
  6
BYLAYER
100
AcDbLine
 10
545.0
 20
35.0
 30
0.0
 11
535.0
 21
35.0
 31
0.0
  0
LINE
  5
1BA
100
AcDbEntity
  8
0
 62
256
370
-1
 48
1.0
  6
BYLAYER
100
AcDbLine
 10
485.0
 20
35.0
 30
0.0
 11
475.0
 21
35.0
 31
0.0
  0
LINE
  5
1BB
100
AcDbEntity
  8
0
 62
256
370
-1
 48
1.0
  6
BYLAYER
100
AcDbLine
 10
475.0
 20
95.0
 30
0.0
 11
485.0
 21
95.0
 31
0.0
  0
LINE
  5
1BC
100
AcDbEntity
  8
0
 62
256
370
-1
 48
1.0
  6
BYLAYER
100
AcDbLine
 10
535.0
 20
95.0
 30
0.0
 11
545.0
 21
95.0
 31
0.0
  0
LINE
  5
1BD
100
AcDbEntity
  8
0
 62
256
370
-1
 48
1.0
  6
BYLAYER
100
AcDbLine
 10
475.0
 20
124.0
 30
0.0
 11
485.0
 21
124.0
 31
0.0
  0
LINE
  5
1BE
100
AcDbEntity
  8
0
 62
256
370
-1
 48
1.0
  6
BYLAYER
100
AcDbLine
 10
535.0
 20
125.0
 30
0.0
 11
545.0
 21
125.0
 31
0.0
  0
LINE
  5
1BF
100
AcDbEntity
  8
0
 62
256
370
-1
 48
1.0
  6
BYLAYER
100
AcDbLine
 10
475.0
 20
275.0
 30
0.0
 11
485.0
 21
275.0
 31
0.0
  0
LINE
  5
1C0
100
AcDbEntity
  8
0
 62
256
370
-1
 48
1.0
  6
BYLAYER
100
AcDbLine
 10
535.0
 20
275.0
 30
0.0
 11
545.0
 21
275.0
 31
0.0
  0
LINE
  5
1C1
100
AcDbEntity
  8
0
 62
256
370
-1
 48
1.0
  6
BYLAYER
100
AcDbLine
 10
545.0
 20
325.0
 30
0.0
 11
535.0
 21
325.0
 31
0.0
  0
LINE
  5
1C2
100
AcDbEntity
  8
0
 62
256
370
-1
 48
1.0
  6
BYLAYER
100
AcDbLine
 10
485.0
 20
325.0
 30
0.0
 11
475.0
 21
325.0
 31
0.0
  0
LINE
  5
1C3
100
AcDbEntity
  8
0
 62
256
370
-1
 48
1.0
  6
BYLAYER
100
AcDbLine
 10
545.0
 20
385.0
 30
0.0
 11
535.0
 21
385.0
 31
0.0
  0
LINE
  5
1C4
100
AcDbEntity
  8
0
 62
256
370
-1
 48
1.0
  6
BYLAYER
100
AcDbLine
 10
485.0
 20
385.0
 30
0.0
 11
475.0
 21
385.0
 31
0.0
  0
LINE
  5
1C5
100
AcDbEntity
  8
0
 62
256
370
-1
 48
1.0
  6
BYLAYER
100
AcDbLine
 10
485.0
 20
415.0
 30
0.0
 11
475.0
 21
415.0
 31
0.0
  0
LINE
  5
1C6
100
AcDbEntity
  8
0
 62
256
370
-1
 48
1.0
  6
BYLAYER
100
AcDbLine
 10
545.0
 20
415.0
 30
0.0
 11
535.0
 21
415.0
 31
0.0
  0
LINE
  5
1C7
100
AcDbEntity
  8
0
 62
256
370
-1
 48
1.0
  6
BYLAYER
100
AcDbLine
 10
475.0
 20
565.0
 30
0.0
 11
485.0
 21
565.0
 31
0.0
  0
LINE
  5
1C8
100
AcDbEntity
  8
0
 62
256
370
-1
 48
1.0
  6
BYLAYER
100
AcDbLine
 10
535.0
 20
565.0
 30
0.0
 11
545.0
 21
565.0
 31
0.0
  0
ENDSEC
  0
SECTION
  2
OBJECTS
  0
DICTIONARY
  5
C
100
AcDbDictionary
280
0
281
1
  3
ACAD_GROUP
350
D
  3
ACAD_LAYOUT
350
1A
  3
ACAD_MLINESTYLE
350
17
  3
ACAD_PLOTSETTINGS
350
19
  3
ACAD_PLOTSTYLENAME
350
E
  3
AcDbVariableDictionary
350
1C9
  3
QCAD_OBJECTS
350
1CA
  0
DICTIONARY
  5
D
100
AcDbDictionary
280
0
281
1
  0
ACDBDICTIONARYWDFLT
  5
E
100
AcDbDictionary
281
1
  3
Normal
350
F
100
AcDbDictionaryWithDefault
340
F
  0
ACDBPLACEHOLDER
  5
F
  0
DICTIONARY
  5
17
100
AcDbDictionary
280
0
281
1
  3
Standard
350
18
  0
MLINESTYLE
  5
18
100
AcDbMlineStyle
  2
STANDARD
 70
0
  3

 62
256
 51
90.0
 52
90.0
 71
2
 49
0.5
 62
256
  6
BYLAYER
 49
-0.5
 62
256
  6
BYLAYER
  0
DICTIONARY
  5
19
100
AcDbDictionary
280
0
281
1
  0
DICTIONARY
  5
1A
100
AcDbDictionary
281
1
  3
Layout1
350
1E
  3
Layout2
350
26
  3
Model
350
22
  0
LAYOUT
  5
1E
100
AcDbPlotSettings
  1

  2
none_device
  4

  6

 40
0.0
 41
0.0
 42
0.0
 43
0.0
 44
0.0
 45
0.0
 46
0.0
 47
0.0
 48
0.0
 49
0.0
140
0.0
141
0.0
142
1.0
143
1.0
 70
688
 72
0
 73
0
 74
5
  7

 75
16
147
1.0
148
0.0
149
0.0
100
AcDbLayout
  1
Layout1
 70
1
 71
1
 10
0.0
 20
0.0
 11
420.0
 21
297.0
 12
0.0
 22
0.0
 32
0.0
 14
100000000000000000000.0
 24
100000000000000000000.0
 34
100000000000000000000.0
 15
-100000000000000000000.0
 25
-100000000000000000000.0
 35
-100000000000000000000.0
146
0.0
 13
0.0
 23
0.0
 33
0.0
 16
1.0
 26
0.0
 36
0.0
 17
0.0
 27
1.0
 37
0.0
 76
0
330
1B
  0
LAYOUT
  5
22
100
AcDbPlotSettings
  1

  2
none_device
  4

  6

 40
0.0
 41
0.0
 42
0.0
 43
0.0
 44
0.0
 45
0.0
 46
0.0
 47
0.0
 48
0.0
 49
0.0
140
0.0
141
0.0
142
1.0
143
1.0
 70
1712
 72
0
 73
0
 74
0
  7

 75
0
147
1.0
148
0.0
149
0.0
100
AcDbLayout
  1
Model
 70
1
 71
0
 10
0.0
 20
0.0
 11
12.0
 21
9.0
 12
0.0
 22
0.0
 32
0.0
 14
0.0
 24
0.0
 34
0.0
 15
0.0
 25
0.0
 35
0.0
146
0.0
 13
0.0
 23
0.0
 33
0.0
 16
1.0
 26
0.0
 36
0.0
 17
0.0
 27
1.0
 37
0.0
 76
0
330
1F
  0
LAYOUT
  5
26
100
AcDbPlotSettings
  1

  2
none_device
  4

  6

 40
0.0
 41
0.0
 42
0.0
 43
0.0
 44
0.0
 45
0.0
 46
0.0
 47
0.0
 48
0.0
 49
0.0
140
0.0
141
0.0
142
1.0
143
1.0
 70
688
 72
0
 73
0
 74
5
  7

 75
16
147
1.0
148
0.0
149
0.0
100
AcDbLayout
  1
Layout2
 70
1
 71
2
 10
0.0
 20
0.0
 11
12.0
 21
9.0
 12
0.0
 22
0.0
 32
0.0
 14
0.0
 24
0.0
 34
0.0
 15
0.0
 25
0.0
 35
0.0
146
0.0
 13
0.0
 23
0.0
 33
0.0
 16
1.0
 26
0.0
 36
0.0
 17
0.0
 27
1.0
 37
0.0
 76
0
330
23
  0
DICTIONARY
  5
1C9
100
AcDbDictionary
281
1
  3
DIMASSOC
350
1CC
  3
HIDETEXT
350
1CB
  0
DICTIONARYVAR
  5
1CB
100
DictionaryVariables
280
0
  1
2
  0
DICTIONARYVAR
  5
1CC
100
DictionaryVariables
280
0
  1
1
  0
DICTIONARY
  5
1CA
100
AcDbDictionary
281
1
  3
ColorSettings/BackgroundColor
350
1CD
  3
ColorSettings/ColorMode
350
1CE
  3
Grid/DisplayGrid00
350
1CF
  3
Grid/DisplayGrid01
350
1D0
  3
Grid/DisplayGrid02
350
1D1
  3
Grid/DisplayGrid03
350
1D2
  3
Grid/GridSpacingX00
350
1D3
  3
Grid/GridSpacingX01
350
1D4
  3
Grid/GridSpacingX02
350
1D5
  3
Grid/GridSpacingX03
350
1D6
  3
Grid/GridSpacingY00
350
1D7
  3
Grid/GridSpacingY01
350
1D8
  3
Grid/GridSpacingY02
350
1D9
  3
Grid/GridSpacingY03
350
1DA
  3
Grid/IsometricGrid00
350
1DB
  3
Grid/IsometricGrid01
350
1DC
  3
Grid/IsometricGrid02
350
1DD
  3
Grid/IsometricGrid03
350
1DE
  3
Grid/IsometricProjection00
350
1DF
  3
Grid/IsometricProjection01
350
1E0
  3
Grid/IsometricProjection02
350
1E1
  3
Grid/IsometricProjection03
350
1E2
  3
Grid/MetaGridSpacingX00
350
1E3
  3
Grid/MetaGridSpacingX01
350
1E4
  3
Grid/MetaGridSpacingX02
350
1E5
  3
Grid/MetaGridSpacingX03
350
1E6
  3
Grid/MetaGridSpacingY00
350
1E7
  3
Grid/MetaGridSpacingY01
350
1E8
  3
Grid/MetaGridSpacingY02
350
1E9
  3
Grid/MetaGridSpacingY03
350
1EA
  3
MultiPageSettings/Columns
350
1EB
  3
MultiPageSettings/GlueMarginsBottom
350
1EC
  3
MultiPageSettings/GlueMarginsLeft
350
1ED
  3
MultiPageSettings/GlueMarginsRight
350
1EE
  3
MultiPageSettings/GlueMarginsTop
350
1EF
  3
MultiPageSettings/PrintCropMarks
350
1F0
  3
MultiPageSettings/Rows
350
1F1
  3
PageSettings/OffsetX
350
1F2
  3
PageSettings/OffsetY
350
1F3
  3
PageSettings/PageOrientation
350
1F4
  3
PageSettings/PaperHeight
350
1F5
  3
PageSettings/PaperWidth
350
1F6
  3
PageSettings/Scale
350
1F7
  3
PageSettings/ShowPaperBorders
350
1F8
  3
PageTagSettings/EnablePageTags
350
1F9
  3
PageTagSettings/TagAlignment
350
1FA
  3
PageTagSettings/TagFont
350
1FB
  3
PageTagSettings/TagPosition
350
1FC
  3
QCADVersion
350
1FD
  3
UnitSettings/PaperUnit
350
1FE
  3
ViewportCenter
350
1FF
  3
ViewportHeight
350
200
  3
ViewportWidth
350
201
  0
XRECORD
  5
1CD
330
1CA
100
AcDbXrecord
280
1
1000
White
  0
XRECORD
  5
1CE
330
1CA
100
AcDbXrecord
280
1
1000
FullColor
  0
XRECORD
  5
1CF
330
1CA
100
AcDbXrecord
280
1
290
1
  0
XRECORD
  5
1D0
330
1CA
100
AcDbXrecord
280
1
290
1
  0
XRECORD
  5
1D1
330
1CA
100
AcDbXrecord
280
1
290
1
  0
XRECORD
  5
1D2
330
1CA
100
AcDbXrecord
280
1
290
1
  0
XRECORD
  5
1D3
330
1CA
100
AcDbXrecord
280
1
1000
auto
  0
XRECORD
  5
1D4
330
1CA
100
AcDbXrecord
280
1
1000
auto
  0
XRECORD
  5
1D5
330
1CA
100
AcDbXrecord
280
1
1000
auto
  0
XRECORD
  5
1D6
330
1CA
100
AcDbXrecord
280
1
1000
auto
  0
XRECORD
  5
1D7
330
1CA
100
AcDbXrecord
280
1
1000
auto
  0
XRECORD
  5
1D8
330
1CA
100
AcDbXrecord
280
1
1000
auto
  0
XRECORD
  5
1D9
330
1CA
100
AcDbXrecord
280
1
1000
auto
  0
XRECORD
  5
1DA
330
1CA
100
AcDbXrecord
280
1
1000
auto
  0
XRECORD
  5
1DB
330
1CA
100
AcDbXrecord
280
1
290
0
  0
XRECORD
  5
1DC
330
1CA
100
AcDbXrecord
280
1
290
0
  0
XRECORD
  5
1DD
330
1CA
100
AcDbXrecord
280
1
290
0
  0
XRECORD
  5
1DE
330
1CA
100
AcDbXrecord
280
1
290
0
  0
XRECORD
  5
1DF
330
1CA
100
AcDbXrecord
280
1
 90
65537
  0
XRECORD
  5
1E0
330
1CA
100
AcDbXrecord
280
1
 90
65537
  0
XRECORD
  5
1E1
330
1CA
100
AcDbXrecord
280
1
 90
65537
  0
XRECORD
  5
1E2
330
1CA
100
AcDbXrecord
280
1
 90
65537
  0
XRECORD
  5
1E3
330
1CA
100
AcDbXrecord
280
1
1000
auto
  0
XRECORD
  5
1E4
330
1CA
100
AcDbXrecord
280
1
1000
auto
  0
XRECORD
  5
1E5
330
1CA
100
AcDbXrecord
280
1
1000
auto
  0
XRECORD
  5
1E6
330
1CA
100
AcDbXrecord
280
1
1000
auto
  0
XRECORD
  5
1E7
330
1CA
100
AcDbXrecord
280
1
1000
auto
  0
XRECORD
  5
1E8
330
1CA
100
AcDbXrecord
280
1
1000
auto
  0
XRECORD
  5
1E9
330
1CA
100
AcDbXrecord
280
1
1000
auto
  0
XRECORD
  5
1EA
330
1CA
100
AcDbXrecord
280
1
1000
auto
  0
XRECORD
  5
1EB
330
1CA
100
AcDbXrecord
280
1
 90
1
  0
XRECORD
  5
1EC
330
1CA
100
AcDbXrecord
280
1
 40
10.0
  0
XRECORD
  5
1ED
330
1CA
100
AcDbXrecord
280
1
 40
10.0
  0
XRECORD
  5
1EE
330
1CA
100
AcDbXrecord
280
1
 40
10.0
  0
XRECORD
  5
1EF
330
1CA
100
AcDbXrecord
280
1
 40
10.0
  0
XRECORD
  5
1F0
330
1CA
100
AcDbXrecord
280
1
290
0
  0
XRECORD
  5
1F1
330
1CA
100
AcDbXrecord
280
1
 90
1
  0
XRECORD
  5
1F2
330
1CA
100
AcDbXrecord
280
1
 40
0.0
  0
XRECORD
  5
1F3
330
1CA
100
AcDbXrecord
280
1
 40
0.0
  0
XRECORD
  5
1F4
330
1CA
100
AcDbXrecord
280
1
1000
Portrait
  0
XRECORD
  5
1F5
330
1CA
100
AcDbXrecord
280
1
 40
297.0
  0
XRECORD
  5
1F6
330
1CA
100
AcDbXrecord
280
1
 40
210.0
  0
XRECORD
  5
1F7
330
1CA
100
AcDbXrecord
280
1
1000
1:1
  0
XRECORD
  5
1F8
330
1CA
100
AcDbXrecord
280
1
290
1
  0
XRECORD
  5
1F9
330
1CA
100
AcDbXrecord
280
1
290
0
  0
XRECORD
  5
1FA
330
1CA
100
AcDbXrecord
280
1
1000
Inside
  0
XRECORD
  5
1FB
330
1CA
100
AcDbXrecord
280
1
1000
Arial,10,-1,5,50,0,0,0,0,0
  0
XRECORD
  5
1FC
330
1CA
100
AcDbXrecord
280
1
1000
TopLeft
  0
XRECORD
  5
1FD
330
1CA
100
AcDbXrecord
280
1
1000
3.26.4
  0
XRECORD
  5
1FE
330
1CA
100
AcDbXrecord
280
1
 90
4
  0
XRECORD
  5
200
330
1CA
100
AcDbXrecord
280
1
 40
1586.7729335494316274
  0
XRECORD
  5
201
330
1CA
100
AcDbXrecord
280
1
 40
2403.856726094001715
  0
ENDSEC
  0
EOF
